» » »

Gloria Tabs (ver.1)

Artists:  A B C D E F G H I J K L M N O P Q R S T U V W X Y Z # 

Gloria Tabs (ver.1)

Van Morrison
Rating:
4/5 (2 votes)

Hard to play? Try these video lessons and learn fast.
                -------------------------------------------------------------------------------
-------------------------------------------------------------------------------

Tuning: standard
	THIS RIFF GOES THROUGH THE WHOLE SONG MAINLY
e|—--0-0-2-0-0-0-------------------------------------------------------------|
B|—--0-0-3-0-2-0-------------------------------------------------------------|
G|-1-1-0-2-0-2-1-------------------------------------------------------------|
D|-2-2-----------------------------------------------------------------------|
A|-2-2-----------------------------------------------------------------------|
E|-0-0-----------------------------------------------------------------------|
			like to tell ya bout my baby, ya know she comes around.
She about five feet four...from her head to the ground
SOLO!!!!
e|-12-12-12—10-9--10---------------------------------------------------------|
B|-12-12-12—10-9--10---------------------------------------------------------|
G|-13-13-13—11-10-11---------------------------------------------------------|
D|---------------------------------------------------------------------------|
A|---------------------------------------------------------------------------|
E|---------------------------------------------------------------------------|
	bridge
e|-4—2-----------------------------------------------------------------------|
B|-5-3-0h2p0-----------------------------------------------------------------|
G|-4-2-----------------------------------------------------------------------|
D|---------------------------------------------------------------------------|
A|---------------------------------------------------------------------------|
E|---------------------------------------------------------------------------|
	riff 2
e|---------------------------------------------------------------------------|
B|---------------------------------------------------------------------------|
G|----------7----------------------------------------------------------------|
D|—7-5h7p5----5------7-5h7p5-0-5---------------------------------------------|
A|---------------------------------------------------------------------------|
E|---------------------------------------------------------------------------|
	comes a walkin down my street, why dontcha come to my house....

riff one
like to tell ya bout my baby
ya know she comes around
just about five feet four 
ya know she comes around here
just about midnight
she makes me feel so good, lord
she makes me feel allright
and her name is g-l-o-r-iiiiii
g-l-o-r-i-a
gloria
gloria
gloria
yeah yeah yeah so good 
allright
feels so good 
allright yeah
SOLO
bridge
riff 2
she comes around here 
just about midnight
she make me feel so good, lord
she make me feel allright
she comes a walkin down the street
why don't ya come to my house
she knock upon my door
then she come to my room
then she make me feel allright
GLORIA(pick up with main riff 1)
I'm gonna shout it allnight
im gonna shout it all day 
finish with solo
| /  slide up
| \  slide down
| h  hammer-on
| p  pull-off
| ~  vibrato
| +  harmonic
| x  Mute note
==============================================================================
            
Hard to play? Try these video lessons and learn fast. | Correct




comments powered by Disqus
↑ Back to top | Tablatures and chords are parodies/interpretations of the original songs. You may use it for private study, scholarship, research or language learning purposes only