» » »

Van Morrison, Brown Eyed Girl Bass tabs (ver.1)

Artists:  A B C D E F G H I J K L M N O P Q R S T U V W X Y Z # 

Brown Eyed Girl Bass tabs (ver.1)

Van Morrison Tabs
 Rating:
4/5 (14 votes)
Brown Eyed Girl lessons Tabs too difficult? Try these video lessons and learn fast
                Bit lengthy but I prefer tab without repeat marks etc. in.  Tab is all in time, each '-' 
16th note.  Any corrections to make, please let me know!  Cheers


  Intro:
G|----------------|----------------|----------------|----------------|----------------|
D|----------------|----------------|--------2-2-4-4-|5---------------|----------------|
A|----------------|------------2---|3-----3---------|----------2-4---|5---------------|
E|----------0-2---|3---------3-----|----------------|----------------|------0---1---2-|
  ^   ^   ^   ^    ^   ^   ^   ^    ^   ^   ^   ^    ^   ^   ^   ^    ^   ^   ^   ^

G|----------------|----------------|----------------|----------------|
D|----------------|--------2-2-4-4-|5---------------|----------------|
A|------------2---|3-----3---------|----------2-4---|5---------------|
E|3---------3-----|----------------|----------------|------0---1---2-|
  ^   ^   ^   ^    ^   ^   ^   ^    ^   ^   ^   ^    ^   ^   ^   ^

  Verse:
G|----------------|----------------|----------------|----------------|
D|----------------|--------2-2-4-4-|5---------------|----------------|
A|------------2---|3-----3---------|----------2-4---|5---------------|
E|3---------3-----|----------------|----------------|------0---1---2-|
  ^   ^   ^   ^    ^   ^   ^   ^    ^   ^   ^   ^    ^   ^   ^   ^

G|----------------|----------------|----------------|----------------|
D|----------------|--------2-2-4-4-|5---------------|----------------|
A|------------2---|3-----3---------|----------2-4---|5---------------|
E|3---------3-----|----------------|----------------|------0---1---2-|
  ^   ^   ^   ^    ^   ^   ^   ^    ^   ^   ^   ^    ^   ^   ^   ^

G|----------------|----------------|----------------|----------------|
D|----------------|--------2-2-4-4-|5---------------|----------------|
A|------------2---|3-----3---------|----------2-4---|5---------------|
E|3---------3-----|----------------|----------------|------0---1---2-|
  ^   ^   ^   ^    ^   ^   ^   ^    ^   ^   ^   ^    ^   ^   ^   ^

G|----------------|----------------|----------------|----------------|
D|----------------|--------2-2-4-4-|5---------------|----------------|
A|------------2-2-|3-----3---------|----------2-4-4-|5-----0---2---3-|
E|3---------3-----|----------------|----------------|----------------|
  ^   ^   ^   ^    ^   ^   ^   ^    ^   ^   ^   ^    ^   ^   ^   ^

  Bridge:
G|----------------|----------------|----------------|----------------|
D|----------------|------------4---|5---------------|2---------------|
A|0---------3-4---|5---------5-----|------------2-5-|------0---2---3-|
E|----------------|----------------|----------3-----|----------------|
  ^   ^   ^   ^    ^   ^   ^   ^    ^   ^   ^   ^    ^   ^   ^   ^

G|----------------|----------------|----------------|----------------|
D|----------------|----------5-----|----------------|----------------|
A|3---------0-4---|5----/7-------7-|----------3-0---|5-----5-5-3-----|
E|----------------|----------------|3---------------|------------0-2-|
  ^   ^   ^   ^    ^   ^   ^   ^    ^   ^   ^   ^    ^   ^   ^   ^

  Verse:
G|----------------|----------------|----------------|----------------|
D|----------------|--------2-2-4-4-|5---------------|----------------|
A|------------2---|3-----3---------|----------2-4---|5---------------|
E|3---------3-----|----------------|----------------|------0---1---2-|
  ^   ^   ^   ^    ^   ^   ^   ^    ^   ^   ^   ^    ^   ^   ^   ^

G|----------------|----------------|----------------|----------------|
D|----------------|--------2-2-4-4-|5---------------|----------------|
A|------------2---|3-----3---------|----------2-4---|5---------------|
E|3---------3-----|----------------|----------------|------0---1---2-|
  ^   ^   ^   ^    ^   ^   ^   ^    ^   ^   ^   ^    ^   ^   ^   ^

G|----------------|----------------|----------------|----------------|
D|----------------|--------2-2-4-4-|5---------------|----------------|
A|------------2---|3-----3---------|----------2-4---|5---------------|
E|3---------3-----|----------------|----------------|------0---1---2-|
  ^   ^   ^   ^    ^   ^   ^   ^    ^   ^   ^   ^    ^   ^   ^   ^

G|----------------|----------------|----------------|----------------|
D|----------------|--------2-2-4-4-|5---------------|----------------|
A|------------2-2-|3-----3---------|----------2-4-4-|5-----0---2---3-|
E|3---------3-----|----------------|----------------|----------------|
  ^   ^   ^   ^    ^   ^   ^   ^    ^   ^   ^   ^    ^   ^   ^   ^

  Bridge:
G|----------------|----------------|----------------|----------------|
D|----------------|------------4---|5---------------|2-------2-2-----|
A|0---------3-4---|5---------5-----|------------2-5-|------0-----0-0-|
E|----------------|----------------|----------3-----|----------------|
  ^   ^   ^   ^    ^   ^   ^   ^    ^   ^   ^   ^    ^   ^   ^   ^

G|----------------|----------------|----------------|----------------|
D|--------5-------|----------5-----|----------------|----------------|
A|3-----------4---|5----/7-------7-|----------3-0---|5---------------|
E|----------------|----------------|3---------------|----------------|
  ^   ^   ^   ^    ^   ^   ^   ^    ^   ^   ^   ^    ^   ^   ^   ^

G|----------------|----------------|
D|----------------|----------------|
A|5-5-5-5-5-5-5-5-|5-5-5-5-5-5-5-5-|
E|----------------|----------------|
  ^   ^   ^   ^    ^   ^   ^   ^

  Chorus:
G|----------------|----------------|----------------|----------------|
D|----------------|--------2-2-4-4-|5-----5---------|----------------|
A|------------2-2-|3-----3---------|--------2-2-4-4-|5-----5-5-5-2-2-|
E|3-----3-3-3-----|----------------|----------------|----------------|
  ^   ^   ^   ^    ^   ^   ^   ^    ^   ^   ^   ^    ^   ^   ^   ^
G|----------------|----------------|----------------|----------------|
D|----------------|--------2-2-4-4-|5-----5---------|----------------|
A|------------2-2-|3-----3---------|--------2-2-4-4-|5-----5-5-5-2-2-|
E|3-----3-3-3-----|----------------|----------------|----------------|
  ^   ^   ^   ^    ^   ^   ^   ^    ^   ^   ^   ^    ^   ^   ^   ^

G|----------------|----------------|----------------|----------------|
D|----------------|----------------|5-----5-5-----5-|5-----5-55------|
A|----------------|----------------|----------------|----------7-5---|
E|3-----3-3-----3-|3-----3-3-----3-|----------------|--------------7-|
  ^   ^   ^   ^    ^   ^   ^   ^    ^   ^   ^   ^    ^   ^   ^   ^

G|----------------|----------------|----------------|----------------|
D|----------------|--------2-2-4-4-|5-----5---------|----------------|
A|------------2---|3-----3---------|----------2-4---|5-----5-5-5-2---|
E|3-----3---3-----|----------------|----------------|----------------|
  ^   ^   ^   ^    ^   ^   ^   ^    ^   ^   ^   ^    ^   ^   ^   ^

  Verse:
G|----------------|----------------|----------------|----------------|
D|----------------|--------2-2-4-4-|5---------------|----------------|
A|------------2---|3-----3---------|----------2-4---|5---------------|
E|3---------3-----|----------------|----------------|------0---1---2-|
  ^   ^   ^   ^    ^   ^   ^   ^    ^   ^   ^   ^    ^   ^   ^   ^

G|----------------|----------------|----------------|----------------|
D|----------------|--------2-2-4-4-|5---------------|----------------|
A|------------2---|3-----3---------|----------2-4---|5---------------|
E|3---------3-----|----------------|----------------|------0---1---2-|
  ^   ^   ^   ^    ^   ^   ^   ^    ^   ^   ^   ^    ^   ^   ^   ^

G|----------------|----------------|----------------|----------------|
D|----------------|--------2-2-4-4-|5---------------|----------------|
A|------------2---|3-----3---------|----------2-4---|5---------------|
E|3---------3-----|----------------|----------------|------0---1---2-|
  ^   ^   ^   ^    ^   ^   ^   ^    ^   ^   ^   ^    ^   ^   ^   ^

G|----------------|----------------|----------------|----------------|
D|----------------|--------2-2-4-4-|5---------------|----------------|
A|------------2-2-|3-----3---------|----------2-4-4-|5-----0---2---3-|
E|3---------3-----|----------------|----------------|----------------|
  ^   ^   ^   ^    ^   ^   ^   ^    ^   ^   ^   ^    ^   ^   ^   ^

  Bridge:
G|----------------|----------------|----------------|----------------|
D|----------------|------------4---|5---------------|2-------2-2-----|
A|0---------3-4---|5---------5-----|------------2-5-|------0-----0-0-|
E|----------------|----------------|----------3-----|----------------|
  ^   ^   ^   ^    ^   ^   ^   ^    ^   ^   ^   ^    ^   ^   ^   ^

G|----------------|----------------|----------------|----------------|
D|--------5-------|----------5-----|----------------|----------------|
A|3-----------4---|5----/7-------7-|----------3-0---|5---------------|
E|----------------|----------------|3---------------|----------------|
  ^   ^   ^   ^    ^   ^   ^   ^    ^   ^   ^   ^    ^   ^   ^   ^

G|----------------|----------------|
D|----------------|----------------|
A|5-5-5-5-5-5-5-5-|5-5-5-5-5-5-5-5-|
E|----------------|----------------|
  ^   ^   ^   ^    ^   ^   ^   ^

  Chorus:
G|----------------|----------------|----------------|----------------|
D|----------------|--------2-2-4-4-|5-----5---------|----------------|
A|------------2-2-|3-----3---------|--------2-2-4-4-|5-----5-5-5-2-2-|
E|3-----3-3-3-----|----------------|----------------|----------------|
  ^   ^   ^   ^    ^   ^   ^   ^    ^   ^   ^   ^    ^   ^   ^   ^
G|----------------|----------------|----------------|----------------|
D|----------------|--------2-2-4-4-|5-----5---------|----------------|
A|------------2-2-|3-----3---------|--------2-2-4-4-|5-----5-5-5-2-2-|
E|3-----3-3-3-----|----------------|----------------|----------------|
  ^   ^   ^   ^    ^   ^   ^   ^    ^   ^   ^   ^    ^   ^   ^   ^
            
Submit corrections

comments powered by Disqus
↑ Back to top | Van Morrison Bass for Brown Eyed Girl. Lyrics for acoustic guitar and electric guitar. Tablatures and chords are parodies/interpretations of the original songs. You may use it for private study, scholarship, research or language learning purposes only