>
 >
We Kept It Hidden 2

We Kept It Hidden 2 Chords

Urban Dub - We Kept It Hidden 2 chords, tabs, tablatures, lyrics

Guitar lessons | Add/correct | Request | Top 50 tabs Artists:  A B C D E F G H I J K L M N O P Q R S T U V W X Y Z 0-9

We Kept It Hidden 2 Chords – Urban Dub

CD, Sheet music, Poster

Do you like We Kept It Hidden 2? Share with your friends now
ChordsChords v2Chords v3TabsUkulele
09283150081

Tuning - Half step down/drop C#

Tinab ko lang ung kay john dinopol at main riff...ung chords AT MAIN RIFF ay kay 
gab...tinataMad ako eh,,,lol


Tuning - Half step down


Intro: D

eb|-2---2---2----2----0----0----0----0----------------------------------|
bb|---3---3----3---3----3----3-----3----3-------------------------------|
gb|---------------------------------------------------------------------|2x
db|---------------------------------------------------------------------|
ab|---------------------------------------------------------------------|
Db|---------------------------------------------------------------------|

Verse-
eb|----5-------------5---|
bb|-------7------------7-|
gb|-7-------------7------|4x
db|----------------------|
ab|----------------------|
Db|----------------------|

D      G                    
  How unfortunate of endings
F#m      G           
  Hid behind the guise of a phase
D           G
Spent most days just pretending
Em       G    
I used perfected all the moves

Refrain-
eb|--------10------------------------------|
bb|-----12-----(14x)-----------------------|
gb|-11-----------------1515151515151515----| 
db|----------------------------------------|
ab|--------------------1313131313131313----|
Db|----------------------------------------|

Bm       F#m              G  
 Didn't know or expect at all
           G
Things would lead me back to you
Bm       F#m              G      Gm
All the wasted times before are gone

Chorus-
eb|-------------------------------------------|
bb|-------------------------------------------|
gb|-------------------------------------------|
db|-0~---------9~---5~-----------0~--------5~-|
ab|-0~---------9~---5~-----------0~--------5~-|
Db|-0~---------9~---5~-----------0~--------5~-|

D                  
Let all the pieces fall
Bm
Out of the dark
G                                  D   G (do intro)
I'm right here now safe in your arms

Verse2
eb|----------------------|-------|
bb|----------------------|-------|
gb|--14/-------7/11~-----|--7v~--|
db|----------------------|--7v~--|
ab|----------------------|-------|
Db|----------------------|-------|

D             
All the things I've put you through
G           
I apologize, now I see the truth

eb|----------------------------|-------|
bb|--10h12~--------------------|-------|
gb|--------------11~-----------|--7v~--|
db|----------------------------|--7v~--|
ab|----------------------------|-------|
Db|----------------------------|-------|
G/F#          
I crumble and fall

    G                                 Gm
This second chance is more than I deserve
eb|----------------------|
bb|----------------------|
gb|-1212121212/14~-------|
db|----------------------|
ab|----------------------|
Db|----------------------|

Chorus-2x
eb|---12~-------------------|  ----------|
bb|-------------------------|  ----------|
gb|-------11~---------------|  -12121212-|
db|-0~-------0~--99~---55~--|2x----------|
ab|-0~-------0~--99~---55~--|  -10101010-|
Db|-0~-------0~--99~---55~--|  ----------|
D                  
Let all the pieces fall
Bm
Out of the dark
G                                  Gm
I'm right here now safe in your arms
D                  
Let all the pieces fall
Bm
Out of the dark
G                                  Gm
I'm right here now safe in your arms

Bridge-
eb|-------------------------------------------|
bb|-------------------------------------------|
gb|-------------------------------------------|
db|--99999999-77777777-55555555-55555555------|
ab|--99999999-77777777-55555555-55555555------|
Db|--99999999-77777777-55555555-55555555------|
Bm         A  
Let them come
                  G
This time, I won't falter
           Gm
Trust in me, cuz this time it's for real

eb|---------------------------------------------|
bb|---------------------------------------------|
gb|---------------------------------------------|
db|------11h12-----------9h11-----------7h9-----|
ab|--9999------(2x)-7777------(2x)-5555----(4x)-|
Db|--9999-----------7777--------- -5555---------|
     ****           ****           **** 
Bm       A                G
Didn't know or expect at all
G             Gm
Things would lead me back to you

then-Bm  D  G   Gm 

eb|------------------------------------------|  ------------------|
bb|-15/--------------------------------------|  ------------------|
gb|-----11/---16/---7-9---9/11~---9--~-------|3x------------------|
db|------------------------------------------|  ---5~------5~-----|
ab|------------------------------------------|  ---5~------5~-----|
Db|------------------------------------------|  ---5~------5~-----|

Bm            
Let all the pieces fall
G             Gm 
Let all the pieces fall

Bm        F#m            G
All the wasted times before
     Gm
Are gone 
eb|-----------------------------/10~---------------3-----|
bb|---------------------------------10~--------------3---|
gb|------------------------------------11~-------3-----3-|
db|--99999999-44444444-55555555----------------5---------|
ab|--99999999-44444444-55555555--------------------------|
Db|--99999999-44444444-55555555--------------------------|

Chorus-2x
eb|---12~-------------------|  ----------|
bb|-------------------------|  ----------|
gb|-------11~---------------|  -12121212-|
db|-0~-------0~--99~---55~--|2x----------|
ab|-0~-------0~--99~---55~--|  -10101010-|
Db|-0~-------0~--99~---55~--|  ----------|
D                  
Let all the pieces fall
Bm
Out of the dark
G                                  Gm
I'm right here now safe in your arms
D                  
Let all the pieces fall
Bm
Out of the dark
G                         Gm
I'm right here in your...right in here now safe in your arms

then 
D      G     

eb|-------12----------|
bb|----10----10-------|
gb|-11----------------|
db|-------------------|continous
ab|-------------------|
Db|-------------------|            
D   
Let all the pieces fall
G 
Let all the pieces fall
Bm
Let all the pieces fall
G
Let all the pieces fall
D   
Let all the pieces fall
G 
Let all the pieces fall



eb|-12------12-10--------|
bb|------10--------10----|
gb|----11--------11--11--|
db|----------------------|continous
ab|----------------------|
Db|----------------------|

D                        G
How unfortunate of endings
                      D 
How unfortunate of endings 





Comments


Popular Urban Dub tabs & chords
Sailin Bass Tabs
Cebuana Chords
Run Away Chords
A New Tattoo Tabs
Fallen On Deaf Ears 1 Tabs
Guillotine 3 Tabs
The Fight Is Over Tabs
Dim The Headlights Ukulele
Endless A Silent Whisper Ukulele
We Kept It Hidden Ukulele


Song lyrics



↑ Back to top | Tablatures and chords are parodies/interpretations of the original songs. You may use it for private study, scholarship, research or language learning purposes only
© 2014 AZChords.com Contact us | Privacy policy | DMCA | Add/correct tabs | Request tabs | Top 50 tabs