>
 >
Soul Searching 1

Soul Searching 1 Guitar Tabs

Urban Dub - Soul Searching 1 chords, tabs, tablatures, lyrics

Guitar lessons | Add/correct | Request | Top 50 tabs Artists:  A B C D E F G H I J K L M N O P Q R S T U V W X Y Z 0-9

Soul Searching 1 Guitar Tabs – Urban Dub

CD, Sheet music, Poster

Do you like Soul Searching 1? Share with your friends now
Bass TabsTabsTabs v2Tabs v3Tabs v4Tabs v5Tabs v6Tabs v7
Credits: Urban dub
URBAN DUB-SOUL SEARCHING
Tuning: D flat/ C sharp

INTRO VERSE
-|----------------------------------|---------------------------------|	
-|----------------------------------|---------------------------------|
-|----------------------------------|-------------------------2---2-2-|
-|---2-2-------3-3-3-2-2-3-3-2------|---2-2-------3-3-3-2-2-2---2-----|
-|-0-----3-3-3------------------3-3-|-0-----3-3-3---------------------|
-|----------------------------------|---------------------------------|
3X					4TH TIME


PRECHORUS
-|-------------------------|
-|-------------------------|
-|-------------------------|
-|-2-2-----5-5-7-7-2-2-2---|
-|-0-0-3-3-3-3-5-5-0-0-0---|
-|-----3-3-----------------|
4x


VERSE
-|-----------------------------------------|-----------------|
-|-----------------------------------------|-----------------|
-|----------------\9-9\12------------------|-----------------|
-|-2-2-----5-5-7-7\*-*\*---2-2-----5-5\7-7-|-2-2-----5-5\7-7-|
-|-0-0-3-3-3-3-5-5\7-7\10--0-0-3-3-3-5\5-5-|-0-0-3-3-3-3\5-5-|
-|-----3-3---------------------3-3---------|-----3-3---------|
2x					   2ND TIME


CHORUS PART 1        
-|-----------------------------------|
-|-----------------------------------|
-|-----------------------------------|
-|-5-555-555-555-55-7-777-777-777-77-|
-|-3-333-333-333-33-5-555-555-555-55-|
-|-3-333-333-333-33------------------|


CHORUS PART 2
|------------------------------------------------------|
|------------------------------------------------------|
|------------------10-99-10-99-10-99-10-99-10\12-12-12-|
|-5-555-555-555-55-*--**-*--**-*--**-*--**-*---*--*--*-|
|-3-333-333-333-33-8--77-8--77-8--77-8--77-8-\10-10-10-|
|-3-333-333-333-33-------------------------------------|

CHORUS PART 3 
-|------------------------------------------------------------------------|
-|------------------------------------------------------------------------|
-|------------------------------------------------------------------------|
-|-5-555-555-555-55-7-777-777-777-77-10--------10h12p10----------10h12p10-|
-|-3-333-333-333-33-5-555-555-555-55-8--888-88----------8-888-88----------|
-|-3-333-333-333-33------------------8--888-88----------8-888-88----------|



THEN BACK TO VERSE THEN CHORUS(ALL PARTS)



AND THEN...
-|------------------------------------------------------------------------------|
-|------------------------------------------------------------------------------|
-|------------------------------------------------------------------------------|
-|------------------------------------------------------------------------------|
-|-0--3--0--3-00000000000000003333333333333333000000000000000088888888888888888-|
-|-0--3--0--3-00000000000000003333333333333333000000000000000088888888888888888-|
		P	A	L	M	M    U    T     E         	

(NO DISTORTION FOR THIS PART)
-|-------|
-|-------|
-|-------|
-|-5---7-|
-|-3---5-|
-|-3-----|


THEN BACK TO CHORUS PART 2


THEN OUTRO
-|--------------------|
-|--------------------|
-|--------------------|4x
-|-2-2-----5-5/7-7----|
-|-0-0-3-3-3-3/5-5----|
-|-----3-3------------|





Comments


Popular Urban Dub tabs & chords
Evidence Bass Tabs
Bright City Kids Chords
Fallen On Deaf Ears Chords
We Kept It Hidden 1 Chords
Alert The Armory 2 Tabs
Come Tabs
Evidence 2 Tabs
Soul Searching 2 Tabs
We Kept It Hidden Tabs
Evidence Ukulele


Song lyrics



↑ Back to top | Tablatures and chords are parodies/interpretations of the original songs. You may use it for private study, scholarship, research or language learning purposes only
© 2014 AZChords.com Contact us | Privacy policy | DMCA | Add/correct tabs | Request tabs | Top 50 tabs