>
 >
Sailin 1

Sailin 1 Guitar Tabs

Urban Dub - Sailin 1 chords, tabs, tablatures, lyrics

Guitar lessons | Add/correct | Request | Top 50 tabs Artists:  A B C D E F G H I J K L M N O P Q R S T U V W X Y Z 0-9

Sailin 1 Guitar Tabs – Urban Dub

CD, Sheet music, Poster

Do you like Sailin 1? Share with your friends now
Bass TabsTabsTabs v2
Band: Urban Dub
Tuning : Standard for all, Pwede kuhain sa Drop D yung bass instead na 5 string pero 

ibang tab na yun
Instrument used : 2 Electric, May Clean tsaka Distorted na Part

Legend
/=Slide Up
\=Slide Down
~=Let Ring/Vibrato
*=Palm Mute Specific
h=Hammer on
p=Pull Off
^=Bend
r=Release
P.M. = Palm Mute Whole Bar


Intro

Bass

G|-------------------------------|
D|-------------------------------|
A|------------5-3-5-3-1-0-0-0-1--|
E|--3-3--3-3---------------------|

Guitar 1 (Clean)

e|-------------------------------|
B|-------------------------------|
G|-------------------------------|
D|-------------------------------|
A|------------5-3-5-3-1-0-0-0-1--|
E|--3-3--3-3---------------------|

Guitar 2 (Clean)

e|-------------------------------|
B|-------------------------------|
G|--3-3--3--3-3------------------|
D|--------------x-x-3-4-5--------|
A|-------------------------------|
E|-------------------------------|

Prechorus

Bass

G|---------------------------|
D|---------------------------|
A|--------1-1-1-3-3-3-5-6-5--|
E|--3-3-3--------------------|

Guitar 1 (Distort)
    * *  * *
e|-----------------------------------|
B|-----------------------------------|
G|-----------------------------------|
D|-----------------------------------|
A|------------5-3-5-3-1-1-0-0-0-1-0--|
E|--3-3--3-3-------------------------|

Guitar 2 (Clean)

e|--xx-3-3-xx-3-3-xx-3-3-xx-3-3--|
B|--xx-3-3-xx-4-4-xx-3-3-xx-4-4--|
G|--xx-3-3-xx-5-5-xx-3-3-xx-5-5--|
D|-------------------------------|
A|-------------------------------|
E|-------------------------------|

Chorus 

Bass

Cm Bb Cm G5 X 2

Guitar 1

Cm Bb Cm G5 X 2

Guitar 2

Cm Bb Cm G5/G5 1 Octave Higher

e|-----------------------------------|
B|-----------------------------------|
G|--5-5-5-5-5-3-0-5-5-5-5-5-3-0------|
D|-----------------------------------|
A|-----------------------------------|
E|-----------------------------------|

Verse

Bass

G|---------------------------0-0-0-------0-0----|
D|-----0--5--3--0------------------1-1-------1--|
A|-------------------5-6--3------------3--------| X2 
E|--3-------------3-----------------------------|

G|---------------------------------------------------------------|
D|---------------------------------------------------------------|
A|--------------------------------3-3--3-1-1-3-3-----3-3-1-1-3-3-| X2
E|--3-3--3-1-1-3-3----3-3-1-1-3-3-----------------3--------------|
B|------------------3--------------------------------------------|

Guitar 1

e|--xx-3-xx-3-xx-3-xx-3-xx-3-xx-3-xx-3-xx-3--|
B|--xx-3-xx-3-xx-3-xx-3-xx-4-xx-4-xx-4-xx-4--|
G|--xx-3-xx-3-xx-3-xx-3-xx-5-xx-5-xx-5-xx-5--|
D|-------------------------------------------| X2
A|-------------------------------------------|
E|-------------------------------------------|

Guitar 2

e|--------------10-10-10-10-10-10~-8-8-8-8-8-8~-10-10-10-10-10-10~-8-8-8-8-8-8~--|
B|--3--4--3--4--11-------------11~-8---------8~-11-------------11~-8---------8~--|
G|--3--5--3--5--12-------------12~-8---------8~-12-------------12~-8---------8~--|
D|--5--5--5--5-------------------------------------------------------------------|X2
A|--5-----5----------------------------------------------------------------------|
E|-------------------------------------------------------------------------------|

Pre-Chorus

Bass

G|-----------|
D|-----------|
A|-----------|
E|-----------|
B|--8\---/8--|

Guitar 1 Clean

Intro

Guitar 2 None

Chorus

Same

Guitar 2 Has Additional Part

e|---------------------------|
B|---------------------------|
G|---------------------------|
D|--------------------1-3-5--|
A|--------1-3--3-3-3---------|
E|--3-3-3--------------------|

Solo

Bass Same as Verse

Guitar 1 Same as Verse

Guitar 2

e|--------------------------------------|
B|-------------------------------4---4--|
G|--5-5h7-5h7-5--------------3h5---5-5--|
D|---------------3h5p3-1-3h5------------|
A|--------------------------------------|
E|--------------------------------------|

e|-------------------------------------------------------|
B|--3h4p3------------------------------------------------|
G|--------5-3-5-5b6r5-3-0-3-0----------------------------|
D|----------------------------3h5-3-1-3/5-3-1-3-1--------|
A|------------------------------------------------1-2-3--|
E|-------------------------------------------------------|

e|--13-10-11-10------------------------------|
B|--------------13-11-13-10h11-8-11h13p11-8--|
G|-------------------------------12----------|
D|-------------------------------------------|
A|-------------------------------------------|
E|-------------------------------------------|

e|--13-10-11-10-----------------------------|
B|--------------13-11-13-10h11-11h13-11-10--|
G|------------------------------------------|
D|------------------------------------------|
A|------------------------------------------|
E|------------------------------------------|

e|--13-10-11-10------------------------------------------------------15--|
B|--------------13-11-13-10h11-8-10h11p10-13-10-11-10h11h13/15-14h15-----|
G|-----------------------------------------------------------------------|
D|-----------------------------------------------------------------------|
A|-----------------------------------------------------------------------|
E|-----------------------------------------------------------------------|

e|--3-3-3-3-3-3-3-3-3-3-3-3-3-3-3-3-3-3-3-3-3-3-3-3-8-8-8-8-8-8~--|
B|--3-3-3-3-3-3-3-3-4-4-4-4-4-4-4-4-3-3-3-3-3-3-3-3-8---------8~--|
G|--3-3-3-3-3-3-3-3-5-5-5-5-5-5-5-5-3-3-3-3-3-3-3-3-8---------8~--|
D|----------------------------------------------------------------|
A|----------------------------------------------------------------|
E|----------------------------------------------------------------|

3rd Bridge

Bass

Gm-C-Gm-C
Bb-C-Bb-C

Guitar 1

Gm-C-Gm-C
Bb-C-Bb-C

Guitar 2

Gm/Gm 1 Octave Higher X2

P.M.

e|----------------------------------------------------------------------|
B|----------------------------------------------------------------------|
G|--7-5-3---3---5-7-5-3---5-7-8-7-5-0-5-0-7-8-7-5--7-5-3---3---5-7-5-3--| 
D|--------3---3---------3--------------------------------3---3----------| 
A|----------------------------------------------------------------------|
E|----------------------------------------------------------------------|

Repeat Prechorus

Repeat Chorus

Ending

Guitar 1

Repeat Chorus 2X





Comments


Popular Urban Dub tabs & chords
Apart Bass Tabs
First Of Summer Bass Tabs
A New Tatoo 1 Chords
Would You Go Chords
Anthem Tabs
Come 1 Tabs
Evidence 3 Tabs
Sailin Tabs
Cebuana Ukulele
Guillotine Ukulele


Song lyrics



↑ Back to top | Tablatures and chords are parodies/interpretations of the original songs. You may use it for private study, scholarship, research or language learning purposes only
© 2014 AZChords.com Contact us | Privacy policy | DMCA | Add/correct tabs | Request tabs | Top 50 tabs