>
 >
Run Away 1

Run Away 1 Guitar Tabs

Urban Dub - Run Away 1 chords, tabs, tablatures, lyrics

Guitar lessons | Add/correct | Request | Top 50 tabs Artists:  A B C D E F G H I J K L M N O P Q R S T U V W X Y Z 0-9

Run Away 1 Guitar Tabs – Urban Dub

CD, Sheet music, Poster

Do you like Run Away 1? Share with your friends now
ChordsTabsTabs v2Tabs v3Tabs v4Ukulele
runaway 
artist : UrbanDub 
song : Runaway 
cell#: 09203206319

listen to the song well to learn the timing
i've included the "*" marks for easier playing

INTRO
e |----3-----3-----3-3-----3---|
B |------3-----3-------3-----3-| 
G |--4-----4-------------4-----|
D |----------------------------|
A |----------------------------|
E |----------------------------|

e |----3-----3-----3-3-------|
B |------3-----3-------------| 
G |--4-----4-----------------|
D |--------------------------|
A |--------------------------|
E |--------------------------|

INTRO Riff *twice
guitar 1 rhythmn
      *strum    *strum
e|----------------------|
B|--------------9-------|
G|-11--------6--9-------|
D|-11-5------7--9-------|
A|-9--5------7--7-------|
E|----3------5----------|
  F#  G      A  E
      *riff1    *riff2
guitar 2 lead
riff 1
e|--------------------------|
B|--------------------------|
G|--------------------------|
D|-5\6--5-5--5\6--5-5-5--5\6|
A|-5\6--5-5--5\6--5-5-5--5\6|
E|-3\4--3-3--3\4--3-3-3--3\4|
riff 2
e|-----------------------------|
B|-----------------------------|
G|-9\10--9-9--9\10--9-9-9--9\10|
D|-9\10--9-9--9\10--9-9-9--7\10|
A|-7\8---7-7--7\8---7-7-7--7\8-|
E|-----------------------------|

third time
                                 *pause
e|--------------------------------|
B|-------------------------------9|
G|-------------------------------9|
D|-5\6--5-5--5\6--5-5-5--5-5-5-5-9|
A|-5\6--5-5--5\6--5-5-5--5-5-5-5-7|
E|-3\4--3-3--3\4--3-3-3--3-3-3-3--|

VERSES 
Riff 1(R1)
e |----3-----3-----3-3-----3---|
B |------3-----3-------3-----3-| 
G |--4-----4-------------4-----|
D |----------------------------|
A |----------------------------|
E |----------------------------|
Here.. 
Riff 2(R2)
e |--------7-----------7-----------|
B |----8-----8-----8-----8-----8---|
G |--9---9-------9---9-------9---9-|
D |--------------------------------|
A |--------------------------------|
E |--------------------------------|
I drove away from all

R1 R2
   I've fallen too deep from the world 
R1 R2
   I know not what I do
R1         Emajor strum
   I think twice so I go

(strumming noT shown)
e|-------------------------|
B|-5-5-5-5-5-5-5-5-5-5-5---|
G|-5-5-5-5-5-5-5-5-5-5-5---|
D|-5-5-5-5-5-5-5-5-5-5-5-- |
A|-3-3-3-3-3-3-3-3-3-3-3---|
E|-------------------------|
How do I? How do I mend the wounds ?

CHORUS 
     chords
   G  Em C  C
e|-3--0--3--3------------|
B|-3--0--5--5------------|
G|-4--0--5--5------------|
D|-5--2--5--5------------|
A|-5--2--3--3------------|
E|-3--0------------------|


[G]I need you
[Em]I want you [C]here
Co'z I'm afraid.[C]

*Do Intro riff 1 except last slide
 
*Do verses riffs
Fool to think I could break the rules
Damage inside still I act cool
I'm dying over you
I slowly break then I go
How do I?How do I mend the wounds?

*repeat chorus

[G]I'm sorry
[Em]I did'nt mean to 
[C]run..[C]run..

BREAK
(Strum once)
   G  Em   
e|-3--0----------------|
B|-3--0----------------|
G|-0--0----------------|
D|-0--2----------------|
A|-2--2----------------|
E|-3--0----------------|
   [G]Run away from [Em]home,[G]mad at the world noi reasons at all[Em] at all
 I'm  lost mind's gone.Everything could be whisked away.

finally the bass line. v means dont let the note ring
G|---------------------------------------------------|
D|-----5---------5-------9p7-7/6---------------------|
A|---------------------7---------7-7-7-7-------------|
E|-3-3----3-3-3---------------------------5---3------|
          v v v                  v v v v  

G|-----------------------------------------------|
D|-----5---------5-------9p7-7/6-6/4-------------|
A|---------------------7-------------------------|
E|-3-3----3-3-3----------------------------------|
          v v v                                   
itama nyo kumg may mali peace!!





Comments


Popular Urban Dub tabs & chords
A New Tattoo Bass Tabs
Endless A Silent Whisper 2 Bass Tabs
Sailin Bass Tabs
A New Tattoo Chords
Good Morning Bones Chords
A New Tatoo Intro Tabs
Endless A Silent Whisper 1 Tabs
Run Away Tabs
Soul Searching 3 Tabs
Safety In Numbers Ukulele


Song lyrics



↑ Back to top | Tablatures and chords are parodies/interpretations of the original songs. You may use it for private study, scholarship, research or language learning purposes only
© 2014 AZChords.com Contact us | Privacy policy | DMCA | Add/correct tabs | Request tabs | Top 50 tabs