» » »

Urban Dub, Come Bass tabs (ver.1)

Artists:  A B C D E F G H I J K L M N O P Q R S T U V W X Y Z # 

Come Bass tabs (ver.1)

Urban Dub Tabs
Rating:
0/5 (0 votes)
Come lessons Tabs too difficult? Try these video lessons and learn fast
                                           **********************
		           *   COME (bassline)  *
		           *    by URBAN DUB    *
                           **********************


Tuning: standard

(N O T E: listen to the song to get the correct tempo)

h - hammer on
/ - slide


INTRO: 


               |      repeat 4x     |
G|-------------|--------------------|
D|-------------|--------------------|
A|-------------|--------------------|
E|-----0-------|---0h2--2--2--------|


               |       repeat 4x       |
G|-------------|-----------------------|
D|-------------|-4-4-2-4-2-4-----------|
A|-------------|-----------------------|
E|-----0-----0-|-------------0-2-2-2-2-|


VERSE 1 & 2:
               
                          
G|-----------------|-----------------|    
D|-----------------|-----------------|
A|-----------------|-----------------|
E|-0-0-----0h2-2-2-|-0-0-----0h2-2-2-|
      ill come          with you    always   


G|-----------------------------------------------|
D|------------------------------/5-5-4-4-2-2-0-0-|
A|-----------------------------------------------|
E|-3-3-3-3-3-3-3-3-3-3-3-3-3-3-------------------|
  my love
 

1ST CHORUS (GUITAR ONLY)


INTERLUDE:
               |       repeat 4x       |
G|-------------|-----------------------|
D|-------------|-4-4-2-4-2-4-----------|
A|-------------|-----------------------|
E|-----0-----0-|-------------0-2-2-2-2-|


 REPEAT VERSES


2ND CHORUS:

   D               F#m             G 
E|---------------|---------------|---------------|
B|---------------|---------------|---------------|
G|---------------|---------------|---------------|
D|---------------|---------------|---------------| 
A|-5-5-5-5-5-5-5-|---------------|---------------|
E|---------------|-2-2-2-2-2-2-2-|-3-3-3-3-3-3-3-|
  coz i like the way... 


INTERLUDE:
               |       repeat 3x       |
G|-------------|-----------------------|
D|-------------|-4-4-2-4-2-4-----------|
A|-------------|-----------------------|
E|-----0-----0-|-------------0-2-2-2-2-|

G|-------------|-----------------------|
D|-------------|--4--4--4--------------|
A|-------------|-----------4--4--4-----|
E|-----0-0-0-0-|-----------------------|


 REPEAT VERSES
 CHORUS (DO 2ND CHORUS BASSLINE)


BRIDGE: 


  F#m        G           F#m       G

G|---------------------|---------------------|
D|---------------------|---------------------|
A|---------------------|---------------------|
E|-2-2-2-2-2-3-3-3-3-3-|-2-2-2-2-2-3-3-3-3-3-|
  I know...              And so...


  F#m        G           F#m       G

G|---------------------|---------------------|
D|---------------------|---------------------|
A|---------------------|---------------------|
E|-2-2-2-2-2-3-3-3-3-3-|-2-2-2-2-2-3-3-3-3-3-|
  You say...             And I...


 CHORUS (DO 2ND CHORUS BASSLINE)

 
OUTRO:

               |       repeat 3x       |
G|-------------|-----------------------|
D|-------------|-4-4-2-4-2-4-----------|
A|-------------|-----------------------|
E|-----0-----0-|-------------0-2-2-2-2-|

G|-------------|-----------------------|
D|-------------|--4--4--4--------------|
A|-------------|-----------4--4--4-----|
E|-----0-0-0-0-|-----------------------|



comments or suggestion? feel free to contact me via email
            
Submit corrections

comments powered by Disqus
↑ Back to top | Urban Dub Bass for Come. Lyrics for acoustic guitar and electric guitar. Tablatures and chords are parodies/interpretations of the original songs. You may use it for private study, scholarship, research or language learning purposes only