>
 >
Come

Come Guitar Tabs

Urban Dub - Come chords, tabs, tablatures, lyrics

Guitar lessons | Add/correct | Request | Top 50 tabs Artists:  A B C D E F G H I J K L M N O P Q R S T U V W X Y Z 0-9

Come Guitar Tabs – Urban Dub

CD, Sheet music, Poster

Do you like Come? Share with your friends now
Bass TabsTabsTabs v2Tabs v3
artist : Urban-dub
song : come



Tuning: Drop D 

(N O T E: Just listen to the song to get the correct strumming and tempo.)


INTRO: 

               |       repeat 8x       |       
E|-------------|-----------------------|
B|-------------|-----------------------|
G|-------3-----|---------------3-------|
D|----------4--|------------------4----|
A|---2---------|---2--4--2-------------|
D|---2---------|---2--4--2-------------|


VERSE 1 & 2:
                                  
E|---------------|---------------|-------------------|
B|---------------|---------------|-------------------|          
G|---------------|---------------|-------------------|     
D|---------------|---------------|-5-5-5-5-5-5-5-5-5-|
A|-2-2-------2-4-|-2-2-------2-4-|-5-5-5-5-5-5-5-5-5-|
D|-2-2-------2-4-|-2-2-------2-4-|-5-5-5-5-5-5-5-5-5-|
   ill come      with you    always   my love

 
1ST CHORUS:

    D		    F#m	            G	      Gm
E|--x------------|---------------|---------------|
B|--3------------|---------------|-------------8-|
G|--2------------|--6------------|--6----6H7---7-|
A|--0------------|--4------------|--5----5-----8-|
D|--0------------|--4------------|--5----5-------|
D|--0------------|--4------------|--5----5-------|
  coz i like the way... 


(REPEAT INTRO)
(REPEAT VERSES)


2ND CHORUS:

   D               F#m             G         w/ Fill 1 
E|---------------|---------------|---------------|
B|---------------|---------------|---------------|
G|---------------|---------------|-6-6-6-6-7-7-7-|
D|-7-7-7-7-7-7-7-|-4-4-4-4-4-4-4-|-5-5-5-5-5-5-5-| 
A|-5-5-5-5-5-5-5-|-4-4-4-4-4-4-4-|-5-5-5-5-5-5-5-|
D|-0-0-0-0-0-0-0-|-4-4-4-4-4-4-4-|-5-5-5-5-5-5-5-|
  coz i like the way... 

 Fill 1
E|---------------------|
B|--2-4-2--------------|
G|--------4-2-4-2-4-0--|
D|---------------------|
A|---------------------|
D|---------------------|


(REPEAT INTRO) 
(REPEAT VERSES)
(REPEAT 2ND CHORUS) 


BRIDGE: 

  F#m      G         F#m     G
  PM---------------------------------
E|-----------------|-----------------|
B|-----------------|-----------------|
G|-----------------|-----------------|
D|-4-4-4-4-5-5-5-5-|-4-4-4-4-5-5-5-5-| 
A|-4-4-4-4-5-5-5-5-|-4-4-4-4-5-5-5-5-|
D|-4-4-4-4-5-5-5-5-|-4-4-4-4-5-5-5-5-|
  I know...         And so...


CHORUS:

    D		    F#m	            G	   Gm   
E|--x------------|---------------|---------------|
B|--3------------|---------------|---------------|
G|--2------------|--6------------|--6------7-----|
D|--0------------|--4------------|--5------5-----|
A|--0------------|--4------------|--5------5-----|
D|--0------------|--4------------|--5------5-----|
  coz i like the way...

    D		    F#m	            G	   Gm
E|--x------------|---------------|---------------|
B|--3------------|---------------|---------------|
G|--2------------|--6------------|--6-6H7--6-6H7-|
A|--0------------|--4------------|--5-5----5-5---|
D|--0------------|--4------------|--5-5----5-5---|
D|--0------------|--4------------|--5-5----5-5---|
  coz i like the way...





Comments


Popular Urban Dub tabs & chords
Endless A Silent Whisper Bass Tabs
A Method To Chaos Chords
Home Chords
What This Night Brings Chords
Evidence 3 Tabs
Fallen On Deaf Ears 3 Tabs
Soul Searching 4 Tabs
Give Ukulele
Guillotine Ukulele
Run Away Ukulele


Song lyrics



↑ Back to top | Tablatures and chords are parodies/interpretations of the original songs. You may use it for private study, scholarship, research or language learning purposes only
© 2014 AZChords.com Contact us | Privacy policy | DMCA | Add/correct tabs | Request tabs | Top 50 tabs