>
 >
Alert The Armory 3

Alert The Armory 3 Guitar Tabs

Urban Dub - Alert The Armory 3 chords, tabs, tablatures, lyrics

Guitar lessons | Add/correct | Request | Top 50 tabs Artists:  A B C D E F G H I J K L M N O P Q R S T U V W X Y Z 0-9

Alert The Armory 3 Guitar Tabs – Urban Dub

CD, Sheet music, Poster

Do you like Alert The Armory 3? Share with your friends now
Bass TabsChordsChords v2TabsTabs v2Tabs v3Tabs v4Tabs v5Ukulele
Alert The Armory by Urbandub

Tuning	 : Drop D
Legend	 : / - slide
	   h - hammer on
	   p - pull off
	    - palm mute
	   b - bend
	   x - mute
         [1] - guitar #1
         [2] - guitar #2
Notes    : Matagal ko na tong nai-tab pero ngayon ko lang nasubmit. This is
           my own version. Sana magustuhan nyo. :)
=====================================================================================
(Distortion)
INTRO: (Listen to the song for the timings & blending)
[1]
e||-----------------------------------------|
B||------1---1---------1---1----------------|
G||----2---2---------2---2------------------|	(2x)
D||-000-0-0-0-320-000-0-0-0-320-------------|
A||--------------0-------------3------------|
D||-----------------------------------------|

[2]
e||-----------------------------------------|
B||-5p35p35p35p35p35p35p35p35p35p35p35p35---|
G||-----------------------------------------|
D||-----------------------------------------|
A||-----------------------------------------|
D||-----------------------------------------|

[1]
e||----------------------------------3----3-|
B||------1---1---------1---1----------------|
G||----2---2---------2---2----------2----2--|	(2x)
D||-000-0-0-0-320-000-0-0-0-320-------------|
A||--------------0-------------3------------|
D||-----------------------------------------|

[2]
e||----------------------------------------------------------------|
B||----------------------------------------------------------------|
G||----------------------------------------------------------------|
D||-0000x0x00x0x00000000x0x00x0x0000-8888x8888x888x8888x8888x8888--|
A||-0000x0x00x0x00000000x0x00x0x0000-8888x8888x888x8888x8888x8888--|
D||-0000x0x00x0x00000000x0x00x0x0000-8888x8888x888x8888x8888x8888--|
=====================================================================================
VERSE1:
[1]	The struggle could be over now...	[2]
e||---------------12-----12x12--------------|	e||---------|
B||-----------------10---10x10--------------|	B||---------|
G||-------------------10-10x10--------------|	G||---------|
D||-0000---------------------------------|	D||-0000-|
A||-0000---------------------------------|	A||-0000-|
D||-0000---------------------------------|	E||-0000-|

[1]
e||-----------------------------------------|
B||-----------------------------------------|
G||-------2-0------2--------2-0------2------|
D||--------3--------32-------3--------32----|
A||-111---111---111---111-------|
D||-----------------------------------------|
[2]
e||-----------------------------------------|
B||-----------------------------------------|
G||-----------------------------------------|
D||-8888x-888x-8888x-888x-----|
A||-8888x-888x-8888x-888x-----|
D||-8888x-888x-8888x-888x-----|

[1]	The times have changed us...		[2]
e||----------------12-12x12x12x12x----------|	e||---------|
B||----------------10-10x10x10x10x----------|	B||---------|
G||----------------10-10x10x10x10x----------|	G||---------|
D||-0000---------------------------------|	D||-0000-|
A||-0000---------------------------------|	A||-0000-|
D||-0000---------------------------------|	E||-0000-|

[1]
e||-----------------------------------------|
B||-----------------------------------------|
G||-------2-0------2--------2-0------2------|
D||--------3--------32-------3--------32----|
A||-111---111---111---111-------|
D||-----------------------------------------|
[2]
e||-----------------------------------------|
B||-----------------------------------------|
G||-----------------------------------------|
D||-8888x-888x-8888x-888x-----|
A||-8888x-888x-8888x-888x-----|
D||-8888x-888x-8888x-888x-----|
=====================================================================================
REFRAIN:
[1] Nothing can make this better...
e||---------------------------------------------------|
B||-----------111-11-1h3-------------5/66--66---------|
G||--------------3--3---2-----------------------------|
D||-00-3-0-8---------------00-3-0-8------33--3-555555-|
A||-00-3-0-8---------------00-3-0-8-------------------|
D||-00-3-0-8---------------00-3-0-8-------------------|
[2]
e||---------------------------------------------------|
B||---------------------------------------------------|
G||---------------------------------------------------|
D||-00-3-0-8-----------8p7-00-3-0-8------------555555-|
A||-00-3-0-8-----------8p7-00-3-0-8------------555555-|
D||-00-3-0-8-----------8p7-00-3-0-8------------555555-|
=====================================================================================
CHORUS:
[1]		Sound the alarm...
e||-----------------------------------------|
B||---------4/5-7-2-------------------------|
G||-----------------------------------------|	(3x)
D||-0-003303--------------------------------|
A||-0-003303--------------------------------|
D||-0-003303--------------------------------|
[2]
e||-----------------------------------------|
B||-----------------------------------------|
G||-----------------------------------------|	(3x)
D||-0-003303-8-88855x7/8--------------------|
A||-0-003303-8-88855x7/8--------------------|
D||-0-003303-8-88855x7/8--------------------|

[1] & [2]	Mayday! Mayday!
e||-----------------------------------------|
B||-----------------------------------------|
G||-----------------------------------------|
D||-0-003303-8-88855x8p70-------------------|
A||-0-003303-8-88855x8p70-------------------|
D||-0-003303-8-88855x8p70-------------------|
=====================================================================================
VERSE 2:
(After the bass part)
[1]
e||----3-------------3----------------------|
B||-----------------------------------------|
G||---2-------------2-----------------------|
D||-----------------------------------------|
A||-----------------------------------------|
D||-----------------------------------------|
[2]
e||-----------------------------------------|
B||-----------------------------------------|
G||-----------------------------------------|
D||-8888x8888x888x8888x8888x888x------------|
A||-8888x8888x888x8888x8888x888x------------|
D||-8888x8888x888x8888x8888x888x------------|

[1] Bring the tears from out of your eyes...
e||---------------------------------12--12--12--12--12--12--12--12---|
B||-----------------------------------10--10--10--10--10--10--10--10-|
G||------------------------------------------------------------------|
D||-0000000000000000---------------------------------|
A||-0000000000000000---------------------------------|
D||-0000000000000000---------------------------------|
[2]									(2x)
e||------------------------------------------------------------------|
B||------------------------------------------------------------------|
G||------------------------------------------------------------------|
D||-0000000000000000-8---------------8---------------|
A||-0000000000000000-8---------------8---------------|
D||-0000000000000000-8---------------8---------------|

[1] It could've been easier now...
e||-------------------------------------------------12-12-12-12--------12-12-12-12-|
B||-------------------------------------------------10-10-10-10---------8--8--8--8-|
G||--------------------------------------------------------------------------------| (2x)
D||-0-0-0-0-0-0-0-0-10-10-10-10-10-10-10-10-8-8-8-8x-----------8-8-8-8x------------|
A||-0-0-0-0-0-0-0-0-10-10-10-10-10-10-10-10-8-8-8-8x-----------8-8-8-8x------------|
D||-0-0-0-0-0-0-0-0-10-10-10-10-10-10-10-10-8-8-8-8x-----------8-8-8-8x------------|
[2]
e||--------------------------------------------------------------------------------|
B||--------------------------------------------------------------------------------|
G||--------------------------------------------------------------------------------| (2x)
D||-0-0-0-0-0-0-0-0-10-10-10-10-10-10-10-10-8-8-8-8x-----------8-8-8-8x-8-8-8-8----|
A||-0-0-0-0-0-0-0-0-10-10-10-10-10-10-10-10-8-8-8-8x-----------8-8-8-8x------------|
D||-0-0-0-0-0-0-0-0-10-10-10-10-10-10-10-10-8-8-8-8x-----------8-8-8-8x------------|
==========================================================================================
REFRAIN:
[1] Nothing can make this better...		There is death... I'm so sick of...
e||------------------------------------------------------------|
B||-----------111-11-1h3-------------5/66--66------------------|
G||--------------3--3---2--------------------------------------|
D||-00-3-0-8---------------00-3-0-8------33--3-5555555-888888x-|
A||-00-3-0-8---------------00-3-0-8----------------------------|
D||-00-3-0-8---------------00-3-0-8----------------------------|
[2]
e||------------------------------------------------------------|
B||------------------------------------------------------------|
G||------------------------------------------------------------|
D||-00-3-0-8-----------8p7-00-3-0-8------------5555555-888888x-|
A||-00-3-0-8-----------8p7-00-3-0-8------------5555555-888888x-|
D||-00-3-0-8-----------8p7-00-3-0-8------------5555555-888888x-|
=========================================================================================
CHORUS:
[1]		Sound the alarm...
e||-----------------------------------------|
B||---------4/5-7-2-------------------------|
G||-----------------------------------------|
D||-0-003303--------------------------------|
A||-0-003303--------------------------------|
D||-0-003303--------------------------------|
[2]
e||-----------------------------------------|
B||-----------------------------------------|
G||-----------------------------------------|
D||-0-003303-8-88855x7/8--------------------|
A||-0-003303-8-88855x7/8--------------------|
D||-0-003303-8-88855x7/8--------------------|

[1] & [2]
e||--------------------------------------------|
B||--------------------------------------------|
G||--------------------------------------------|
D||-0-003303-8-88855x-7b8-0-003303-8-88855x7/8-|
A||-0-003303-8-88855x-----0-003303-8-88855x7/8-|
D||-0-003303-8-88855x-----0-003303-8-88855x7/8-|

e||-----------------------------------------|
B||-----------------------------------------|
G||-----------------------------------------|
D||-0-003303-8-88855x8p70-------------------|
A||-0-003303-8-88855x8p70-------------------|
D||-0-003303-8-88855x8p70-------------------|
===========================================================================================
OUTRO:
[1] & [2]               Mayday! Mayday!
e||-----------------------------------------|
B||-----------------------------------------|
G||-----------------------------------------| (2x)
D||-0-0-0-0-3-3-3-3-8-8-8-8-5-5x-8p7--------|
A||-0-0-0-0-3-3-3-3-8-8-8-8-5-5x-8p7--------|
D||-0-0-0-0-3-3-3-3-8-8-8-8-5-5x-8p7--------|

[1]
e||----------------------------------------------------|
B||-6-5-4-4-4-6-5-4-4-4-6-5-8-6-5-5--6-5-4-4-4-6-5-4-4-|
G||----------------------------------------------------|
D||----------------------------------------------------|
A||----------------------------------------------------|
D||----------------------------------------------------|
[2]
e||-----------------------------------------|
B||-----------------------------------------|
G||-----------------------------------------|
D||-0-0-0-0-3-3-3-3-8-8-8-8-5-5x-8p7--------|
A||-0-0-0-0-3-3-3-3-8-8-8-8-5-5x-8p7--------|
D||-0-0-0-0-3-3-3-3-8-8-8-8-5-5x-8p7--------|

e||-----------------------------------------|
B||-----------------------------------------|
G||-----------------------------------------|
D||-0-0-0-0-3-3-3-3-8-8x-5-5x---------------|
A||-0-0-0-0-3-3-3-3-8-8x-5-5x---------------|
D||-0-0-0-0-3-3-3-3-8-8x-5-5x---------------|





Comments


Popular Urban Dub tabs & chords
Endless A Silent Whisper Bass Tabs
A Call To Arms 2 Chords
Come 1 Tabs
Evidence 2 Tabs
First Of Summer 4 Tabs
Sailin 1 Tabs
The Fight Is Over 1 Tabs
A Method To Chaos Ukulele
Alert The Armory Ukulele
Face In The Woods Ukulele


Song lyrics



↑ Back to top | Tablatures and chords are parodies/interpretations of the original songs. You may use it for private study, scholarship, research or language learning purposes only
© 2014 AZChords.com Contact us | Privacy policy | DMCA | Add/correct tabs | Request tabs | Top 50 tabs