» » »

Urban Dub, Alert The Armory Tabs (ver.1)

Artists:  A B C D E F G H I J K L M N O P Q R S T U V W X Y Z # 

Alert The Armory Tabs (ver.1)

Urban Dub Tabs
 Rating:
4/5 (8 votes)
Alert The Armory lessons Tabs too difficult? Try these video lessons and learn fast
                i got p**sed after checkin out those other tabs cuz they didn't quite sound right...try 
to...more or less ito na talaga yung tama...

tuning: drop-d, half-step down

intro:
e------------------------------------------------------------|
B------------------------------------------------------------|
G--------5--5----------------5--5----------------5--5--------|
D-------7--7--3-2-0---------7--7--3-2-0---------7--7--3-2-0--|
A-5-5-5---5--------3--5-5-5---5--------3--5-5-5---5--------3-|
D------------------------------------------------------------|

e--------------------------------------------------------|
B--------------------------------------------------------|
G--------5--5----------------5--5----------------5--5----|
D-------7--7--3-2-0---------7--7--3-2-0---------7--7--7--|
A-5-5-5---5--------3--5-5-5---5--------3--5-5-5---5------|
D--------------------------------------------------------|

e------------------------------------|
B-------10-10-8-10--------10-10-8-10-|
G------------------------------------|
D-8-8-8-------------8-8-8------------|
A-8-8-8-------------8-8-8------------|
D-8-8-8-------------8-8-8------------|

e--------------------------------------------------------------------------|
B-----------------------------------------------10-10-8-10------10-10-8-10-|
G--------5--5----------------5--5------------------------------------------|
D-------7--7--3-2-0---------7--7--3-2-0---8-8-8------------8-8-8-----------|
A-5-5-5---5--------3--5-5-5---5--------3--8-8-8------------8-8-8-----------|
D-----------------------------------------8-8-8------------8-8-8-----------|

verse:
e----------------------------------|2x
B----------------------------------|
G----------------------------------|
D-0-0-0--3-----0-0-0-3-0-3/8-8-8-8-|
A-0-0-0--3-----0-0-0-3-0-3/8-8-8-8-|
D-0-0-0--3-----0-0-0-3-0-3/8-8-8-8-|

prechorus:
e------------------------------------|
B------------------------------------|
G------------------------------------|
D-5-3-0-0-3-3/8-8-8-8-8-8-8--8--8--8-|
A-5-3-0-0-3-3/8-8-8-8-8-8-10-12-10-8-|
D-5-3-0-0-3-3/8-8-8-8-8-8-8--8--8--8-|

e----------------------------------------------------|
B----------------------------------------------------|
G----------------------------------------------------|
D-5-3-0-0-3-3/8-8-8-8-8-8--8-8-8--8---8-8-8--8--8-8--|
A-5-3-0-0-3-3/8-8-8-8-8-8--8-8-12-12--8-8-12-12-8-12-|
D-5-3-0-0-3-3/8-8-8-8-8-8--8-8-8--8---8-8-8--8--8-8--|

e--------------------|
B--------------------|
G--------------------|
D-5-5-5-5-5-5--5-3-0-|
A-5-5-5-5-5-5--5-3-0-|
D-5-5-5-5-5-5--5-3-0-|

chorus:                              3x|
e--------------------------------------|-----------------------------------|
B--------------------------------------|-----------------------------------|
G---------------5-5/7------------------|--------------5-5/7----------------|
D-0-0-0-0-3-0-3-x-x/x-8-8-8-8-8--5-3-0-|0-0-0-0-3-0-3-x-x/x-8-8-5-5--5-3-0-|
A-0-0-0-0-3-0-3-3-3/5-8-8-8-8-8--5-3-0-|0-0-0-0-3-0-3-3-3/5-8-8-5-5--5-3-0-|
D-0-0-0-0-3-0-3-------8-8-8-8-8--5-3-0-|0-0-0-0-3-0-3-------8-8-5-5--5-3-0-|

                             < Bass Solo >

e------------------------------------|
B-------10-10-8-10--------10-10-8-10-|
G------------------------------------|
D-8-8-8-------------8-8-8------------|
A-8-8-8-------------8-8-8------------|
D-8-8-8-------------8-8-8------------|

verse:
e----------------------------------------------------------|2x
B----------------------------------------------------------|
G----------------------------------------------------------|
D-0-0-0-0-0-0-0-0-0-0-0-0-0-0-0-0-10-10-10-10-10-10-10-10--|
A-0-0-0-0-0-0-0-0-0-0-0-0-0-0-0-0--10-10-10-10--8--8-10-10-|
D-0-0-0-0-0-0-0-0-0-0-0-0-0-0-0-0--------------------------|

e------------------------------------------------------------------|2x
B--------------------------------------10-10-10-10--------8-8-8-6--|
G-----------------5-5-5-5-5-5-5-5----------------------------------|
D-0-0-0-0-0-0-0-0-5-5-5-5-5-5-5-5-8-8-8-------------8-8-8----------|
A-0-0-0-0-0-0-0-0-3-3-3-3-3-3-3-3-8-8-8-------------8-8-8----------|
D-0-0-0-0-0-0-0-0-----------------8-8-8-------------8-8-8----------|

prechorus:
e------------------------------------|
B------------------------------------|
G------------------------------------|
D-5-3-0-0-3-3/8-8-8-8-8-8-8--8--8--8-|
A-5-3-0-0-3-3/8-8-8-8-8-8-10-12-10-8-|
D-5-3-0-0-3-3/8-8-8-8-8-8-8--8--8--8-|

e----------------------------------------------------|
B----------------------------------------------------|
G----------------------------------------------------|
D-5-3-0-0-3-3/8-8-8-8-8-8--8-8-8--8---8-8-8--8--8-8--|
A-5-3-0-0-3-3/8-8-8-8-8-8--8-8-12-12--8-8-12-12-8-12-|
D-5-3-0-0-3-3/8-8-8-8-8-8--8-8-8--8---8-8-8--8--8-8--|

e--------------------|
B--------------------|
G--------------------|
D-5-5-5-5-5-5--5-3-0-|
A-5-5-5-5-5-5--5-3-0-|
D-5-5-5-5-5-5--5-3-0-|

chorus:                              3x|
e--------------------------------------|-----------------------------------|
B--------------------------------------|-----------------------------------|
G---------------5-5/7------------------|--------------5-5/7----------------|
D-0-0-0-0-3-0-3-x-x/x-8-8-8-8-8--5-3-0-|0-0-0-0-3-0-3-x-x/x-8-8-5-5--5-3-0-|
A-0-0-0-0-3-0-3-3-3/5-8-8-8-8-8--5-3-0-|0-0-0-0-3-0-3-3-3/5-8-8-5-5--5-3-0-|
D-0-0-0-0-3-0-3-------8-8-8-8-8--5-3-0-|0-0-0-0-3-0-3-------8-8-5-5--5-3-0-|

mayday part:
e---------------------------------|as many
B---------------------------------|as needed
G---------------------------------|
D-0-0-0-0-3-3-3-3-8-8-8-8-8-8-8-8-|
A-0-0-0-0-3-3-3-3-8-8-8-8-8-8-8-8-|
D-0-0-0-0-3-3-3-3-8-8-8-8-8-8-8-8-|

solo:
e---------------------------------------------------------|
B-10-9-7-10-9-7-7-10-9-10/12-10-9---10-9-7-10-9-7-7-10-9--|
G---------------------------------------------------------|
D---------------------------------------------------------|
A---------------------------------------------------------|
D---------------------------------------------------------|

outro:
e-----------|
B-----------|
G-8-8--5-5--|
D-8-8--5-5--|
A-8-8--5-5--|

>>>11rich03<<
10:34pm, thursday, may 18, 2006
            
Submit corrections

comments powered by Disqus
↑ Back to top | Urban Dub Tabs for Alert The Armory. Lyrics for acoustic guitar and electric guitar. Tablatures and chords are parodies/interpretations of the original songs. You may use it for private study, scholarship, research or language learning purposes only