» » »

Pag Agos Tabs (ver.3)

Artists:  A B C D E F G H I J K L M N O P Q R S T U V W X Y Z # 

Pag Agos Tabs (ver.3)

Up Dharma Down
Rating:
4/5 (2 votes)

Hard to play? Try these video lessons and learn fast.
                

Chords:

     C#   B   G#  A

e|--------------------|
B|--------------------|
G|-- 6----4-----------|
D|---6----4---6---7---|
A|---4----2---6---7---|
E|------------4---5---|

Intro: C# B G# A

Verse 1: C# B G# A

At sa aking pagkubli
hampas ng araw pagdamdam ng gabi
tulog ang iyong mga kamay
di nako makapag antay

Interlude:

e|-----------------------------------------|
B|-----------------------------------------|
G|----6---6---4---4-4----------9-8-6-6-8---|
D|----6---6---4---4-4---6---6--9-8-6-6-8---|
A|--4-4-4-4-2-2-2-2-2---6---6--7-6-4-4-6---|
E|--------------------4-4-4-4--------------|

e|-----------------------------------------|
B|-----------------------------------------|
G|----6---6---4---4-4----------------------|
D|----6---6---4---4-4---6---6-7------------|
A|--4-4-4-4-2-2-2-2-2---6---6-7------------|
E|--------------------4-4-4-4-5------------|


Verse 2: C# B G# A

isang umaga muling aahon
at sisikat sa mga panahon
na tayong pang dalawa 
masayang pagsasama

Chorus: C# B G# A

buong araw ng pag-agos
kailan ang huling unos
di alam kung tatakbo
kusang lalayo sayo 

Verse 3: C# B G# A

isang umaga muli ng pag-iisa 
walang mayakap at makasama
pusong pilit na sinugatan
landas kong karaniwan

Repeat Chorus

Outro: C# B


Wala pa po yung mga parts ng lead, kinakapa ko pa e, hehe.. :D
 

Salamat! XD
            
Hard to play? Try these video lessons and learn fast. | Correct




comments powered by Disqus
↑ Back to top | Tablatures and chords are parodies/interpretations of the original songs. You may use it for private study, scholarship, research or language learning purposes only