» » »

Up Dharma Down, Pag Agos Tabs (ver.2)

Artists:  A B C D E F G H I J K L M N O P Q R S T U V W X Y Z # 

Pag Agos Tabs (ver.2)

Up Dharma Down Tabs
 Rating:
3.4/5 (5 votes)
Pag Agos lessons Tabs too difficult? Try these video lessons and learn fast
1
                Pag-agos by Up Dharma Down

Song Title: Pag-agos
Band: Up Dharma Down


I just watch the myx tugtugan version of this song and tried to tab it. 
Hope you like it. Im not sure if this is correct. Haha!
 
Nikki Katrina Alvaro, this song is for you!Hope you like it!


Guitar Tuning: Standard
Bass: Standard(5 Strings), i not sure what is the tuning. haha

Intro/Verse: FM7 - GM7 - C#

Bass:
|--13~---16~---8~---9~---|  This is the only part i know,
|--11~---14~---9~---9~---|  the second part of it, the C#
|--9~----12~---x----x----|  is played in higher notes...
|--------------9~---9~---|  But you can also play this
|------------------------|  if you don't know that part.


*For those who want to play it in 6String guitar or acoustic,
you can play the intro and verse like this:
|----------------------|
|----------------------|   *Note: This part is played plucking,
|------------8~---9~---|   not strumming. You must pluck the
|--6~---9~---9~---9~---|   strings together. But it depends
|--4~---7~---x----x----|   to you. ^_^
|--2~---5~---9~---9~---|


Guitar:
|----------------------------------------------------------|
|------------------------------12-12-----------------------|
|-----------------------13-13---------13-13----------------|
|----------------13-13-----------------------13-13---------|
|--11-11--14-14-------------------------------------14-14--|
|----------------------------------------------------------|

Just listen to the song so that you'll get when you're going
play this part. 



Bass Break:
|----13----13-----16-----16---16------8---8---8----9--8--9--| 
|----11----11-----14-----14---14------9---9---9----9--9--9--| 
|--9-----9------12-----12-----12----------------------------|  
|-----------------------------------9----9----9----9--9--9--|  
|-----------------------------------------------------------|

Again, Listen to the song to get the right way of playing
this part. You can also do this in acoustic, but use the
chords of intro/verse and play like this.

  
Chorus: A - B - C#

Bass:
|--------9p8-----------9p8-----------9p8-----------9p8-----|
|-----9-------9-----9-------9-----9-------9-----9-------9--|
|--0-------------------------------------------------------|
|----------------7-------------9-------------9-------------|
|----------------------------------------------------------|

I'm not sure about this part, but this is what I saw when
Paul played it. But the chords are correct. 

Outro: FM7 - GM7

Bass:
|--13~---16~--|  
|--11~---14~--|  
|--9~----12~--|  
|-------------|  
|-------------|  

Same with the acoustic, play only the FM7 and GM7.


That's all i know, please post a comment so that i know what to edit. 
Thanks!
            
Submit corrections

comments powered by Disqus
↑ Back to top | Up Dharma Down Tabs for Pag Agos. Lyrics for acoustic guitar and electric guitar. 1 Tablatures and chords are parodies/interpretations of the original songs. You may use it for private study, scholarship, research or language learning purposes only