» » »

Up Dharma Down, Pag Agos Bass tabs (ver.1)

Artists:  A B C D E F G H I J K L M N O P Q R S T U V W X Y Z # 

Pag Agos Bass tabs (ver.1)

Up Dharma Down Tabs
 Rating:
4/5 (4 votes)
Pag Agos lessons Tabs too difficult? Try these video lessons and learn fast
1
                - hope this will help
you out with the song,
although the song was
already tabbed here by
others somewhere.

* bass players are known
to play with their bass lines
so you may want to alter some
notes here. this here is just
generally the way the song is
played, i think. c:

Intro:

G|-13----16----8----9----|
D|-11----14----9----9----|
A|-9-----12--------------|
E|-------------9----9----|

First Verse:

("at sa aking pagkubli..")

G|-13----16----8----9----|
D|-11----14----9----9----|
A|-9-----12--------------|
E|-------------9----9----|

G|-13----16----8----9----|
D|-11----14----9----9----|
A|-9-----12--------------|
E|-------------9----9----|

Break:

G|---13---13-----16----16-16---|
D|---11---11-----14----14-14---|
A|-9----9-----12----12---------|
E|-----------------------------|

G|---8---8--9-8-6-9---|
D|---9---9--9-9-7-9---|
A|--------------------|
E|-9---9----9---------|

G|---13---13-----16----16-16-----20----20-20--|
D|---11---11-----14----14-14-----18----18-18--|
A|-9----9-----12----12--------16----16----16--|
E|--------------------------------------------|

Second Verse:

("..isang umaga muling aahon..")

G|-13----16----8----9----|
D|-11----14----9----9----|
A|-9-----12--------------|
E|-------------9----9----|

G|-13----16----8----9----|
D|-11----14----9----9----|
A|-9-----12--------------|
E|-------------9----9----|

G|-13----16----8----9----|
D|-11----14----9----9----|
A|-9-----12--------------|
E|-------------9----9----|

G|-13----16----20-20----20-20-20-20--|
D|-11----14----18-18----18-18-18-18--|
A|-9-----12----16----16----------16--|
E|-----------------------------------|

First Chorus:

("..buong araw ng pag-agos..")

   A         B         C#

G|-----98------8-98--------6------------|
D|---7----9----9----9----6---6----------|
A|-0-------------------4-------44444444-|
E|-----------7--------------------------|

Short Interlude:

(the short instrumental after the
chorus and before the third verse)

G|-13----16----8----9----|
D|-11----14----9----9----|
A|-9-----12--------------|
E|-------------9----9----|

G|-13----16----8----9----|
D|-11----14----9----9----|
A|-9-----12--------------|
E|-------------9----9----|

Third Verse:*

("..isang umaga muli ng pag-iisa.."
* same as second verse

Final Chorus:**
**same as the first chorus,
and is played until the end

Outro:

G|-13----16--|
D|-11----14--|
A|-9-----12--|
E|-----------|

* * *
            
Submit corrections

comments powered by Disqus
↑ Back to top | Up Dharma Down Bass for Pag Agos. Lyrics for acoustic guitar and electric guitar. 1 Tablatures and chords are parodies/interpretations of the original songs. You may use it for private study, scholarship, research or language learning purposes only