» » »

Stereo Ad Bass tabs (ver.1)

Artists:  A B C D E F G H I J K L M N O P Q R S T U V W X Y Z # 

Stereo Ad Bass tabs (ver.1)

Unsigned
Rating:
0/5 (0 votes)

Hard to play? Try these video lessons and learn fast.
                Intro (Rest for 2 bars)

|----------------------------------------| x2
|----------------------------------------|
|--0------------------0-3-------2--------|
|----------------------------------------|

|----------------------------------------| x4
|--0------------------0-3-------2--------|
|----------------------------------------|
|----------------------------------------|

|----------------------------------------| x4
|----------------------------------------|
|--0------------------0-3-------2--------|
|----------------------------------------|

Verse 1

|------------------------------------------------------------------| x2
|------------------0-0-0-0-0-0-0-0---------------------------------|
|--0-0-0-0-0-0-0-0-----------------3-3-3-3-3-3-3-3-----------------|
|--------------------------------------------------3-3-3-3-0-0-0-0-|

|------------------------------------------------------------------| x2
|------------------------------------------------------------------|
|----------------------------------3-3-3-3-3-3-3-3-----------------|
|--5-5-5-5-5-5-5-3-1-1-1-1-1-1-1-1-----------------3-3-3-3-3-3-3-3-|

|------------------------------------------------------------------| x4
|------------------------------------------------------------------|
|------------------------------------------------------------------|
|--0-----0-----0---3-----3-----3---8-----8-----8---5----5----3----3|

Verse 2

|------------------------------------------------------------------| x2
|------------------0-0-0-0-0-0-0-0---------------------------------|
|--0-0-0-0-0-0-0-0-----------------3-3-3-3-3-3-3-3-----------------|
|--------------------------------------------------3-3-3-3-0-0-0-0-|

|------------------------------------------------------------------| x2
|------------------------------------------------------------------|
|----------------------------------3-3-3-3-3-3-3-3-----------------|
|--5-5-5-5-5-5-5-3-1-1-1-1-1-1-1-1-----------------3-3-3-3-3-3-3-3-|

|------------------------------------------------------------------| x4
|------------------------------------------------------------------|
|------------------------------------------------------------------|
|--0-----0-----0---3-----3-----3---8-----8-----8---5----5----3----3|

Outro

|----------------------------------------| x4
|----------------------------------------|
|--0------------------0-3-------2--------|
|----------------------------------------|

|----------------------------------------| x4
|--0------------------0-3-------2--------|
|----------------------------------------|
|----------------------------------------|

|----------------------------------------|
|----------------------------------------|
|--0-------------------------------------|
|----------------------------------------|
            
Hard to play? Try these video lessons and learn fast. | Correct




comments powered by Disqus
↑ Back to top | Tablatures and chords are parodies/interpretations of the original songs. You may use it for private study, scholarship, research or language learning purposes only