» » »

No Shadows Cast- Introduction Tabs (ver.1)

Artists:  A B C D E F G H I J K L M N O P Q R S T U V W X Y Z # 

No Shadows Cast- Introduction Tabs (ver.1)

Unsigned
Rating:
0/5 (0 votes)

Tabs too difficult? Try these video lessons and learn fast.
                E---1----1----1----1----1---------------------------------------------
B----2----2-----2---2----2--------------------------------------------
G----------------------------------------------------------------
D----------------------------------------------------------------
A----------------------------------------------------------------
E----------------------------------------------------------------

E-----9---9----9------10--10---10-----9---9----9---------12b-----  (10x)
B------10---10---10----11---11---11-----10--10---10--------------
G----------------------------------------------------------------
D----------------------------------------------------------------
A----------------------------------------------------------------
E----------------------------------------------------------------

B---1-1-------3---3---3-----3--3--------------------------------- (6x)
E---1-1--------4---4----4----4---4-------------------------------
G----------------------------------------------------------------
D----------------------------------------------------------------
A----------------------------------------------------------------
E----------------------------------------------------------------

E---9------7-----5---5---7---7-----9---9-------------------------(2x)
B-----10-----8-----6--6---8---8------10---10---------------------
G----------------------------------------------------------------
D----------------------------------------------------------------
A----------------------------------------------------------------
E----------------------------------------------------------------
            
Tabs too difficult? Try these video lessons and learn fast.




comments powered by Disqus
↑ Back to top | Tablatures and chords are parodies/interpretations of the original songs. You may use it for private study, scholarship, research or language learning purposes only