» » »

Glytch - Frustrated Tabs (ver.2)

Artists:  A B C D E F G H I J K L M N O P Q R S T U V W X Y Z # 

Glytch - Frustrated Tabs (ver.2)

Unsigned
Rating:
0/5 (0 votes)

Hard to play? Try these video lessons and learn fast.
                Band - Glytch
Song - Frustrated

This is a very easy song to play......i made it so easy 
because it is the very first song that i actually made 
up a guitar part to it.

Intro
|--------------------------------------------------|
|--------------------------------------------------|
|--------------------------------------------------|
|-----2-----2-----2-----2--------------------------|
|-2-2---2-2---2-2---2-2-------0-----0-----0-----0--|
|-------------------------2-2---2-2---2-2---2-2----|

|--------------------------------------------------|
|--------------------------------------------------|
|--------------------------------------------------|
|-----2-----2-----2-----2--------------------------|
|-2-2---2-2---2-2---2-2-------0-----0-----0-----0--|
|-------------------------2-2---2-2---2-2---2-2----|

Verse
|-------------------------------------------------------------|
|-------------------------------------------------------------|
|-------------------------------------------------------------|
|-2-2-2-2-2-2-2-2-2-------------2-2-2-2-2-2-2-2-2-------------|
|-2-2-2-2-2-2-2-2-2--2-2-2-2-2--2-2-2-2-2-2-2-2-2--2-2-2-2-2--|
|--------------------2-2-2-2-2---------------------2-2-2-2-2--|

|-------------------------------|
|-------------------------------|
|-------------------------------|
|-2-2-2-2-2-2-2-2-2-------------|
|-2-2-2-2-2-2-2-2-2--2-2-2-2-2--|
|--------------------2-2-2-2-2--|

Chorus
|-----------------------------------------------|
|-----------------------------------------------|
|-----------------------------------------------|
|-8-8-8-8-8-8--6-6-6-6-6-6-6--4-4-4-4-4-4-4--3--|
|-9-9-9-9-9-9--7-7-7-7-7-7-7--5-5-5-5-5-5-5--4--|
|-9-9-9-9-9-9--7-7-7-7-7-7-7--5-5-5-5-5-5-5--4--|

|-----------------------------------------------|
|-----------------------------------------------|
|-----------------------------------------------|
|-8-8-8-8-8-8--6-6-6-6-6-6-6--4-4-4-4-4-4-4--3--|
|-9-9-9-9-9-9--7-7-7-7-7-7-7--5-5-5-5-5-5-5--4--|
|-9-9-9-9-9-9--7-7-7-7-7-7-7--5-5-5-5-5-5-5--4--|

Bridge
|-----------------------------------------------------------|
|-----------------------------------------------------------|
|-----------------------------------------------------------|
|-6-6-6-6-6-6----5-5-5-5-5-5----4-4-4-4-4-4----3-3-3-3-3-3--|
|-6-6-6-6-6-6----5-5-5-5-5-5----4-4-4-4-4-4----3-3-3-3-3-3--|
|-4-4-4-4-4-4----3-3-3-3-3-3----2-2-2-2-2-2----1-1-1-1-1-1--|

Order
Intro 2x
Verse
Chorus
Verse
Chorus
Bridge
Chorus
            
Hard to play? Try these video lessons and learn fast. | Correct




comments powered by Disqus
↑ Back to top | Tablatures and chords are parodies/interpretations of the original songs. You may use it for private study, scholarship, research or language learning purposes only