» » »

Unsigned, 241 - Confusion Tabs (ver.1)

Artists:  A B C D E F G H I J K L M N O P Q R S T U V W X Y Z # 

241 - Confusion Tabs (ver.1)

Unsigned Tabs
Rating:
0/5 (0 votes)
Hard to play? Try these video lessons and learn fast.
                (Part)
If you want to hear the song, im on AOL Instant Messenger almost all day, so IM me and ill send it to you. The241Guitarist

H- Hammer On     *- Harmonic
P- Pull Off      /- Slide 
DROP-D TUNING

Intro/Verse-(Clean)
e-------------------------]
B-------------------------]
G-------------------------]
D-----2h3p2---------------]
A-5-0-------3-0-----------]
D-5-0-----------0---------]

e-------------------------]
B-------------------------]
G-------------------------]
D-----2h3p2---------------]
A-5-0-------3-0-3-3/5-0---]
D-5-0---------------------]

e-------------------------]
B-------------------------]
G-------------------------]
D-----2h3p2---------------]
A-5-0-------3-0-----------]
D-5-0-----------0---------]

e-------------------------]
B-------------------------]
G-------------------------]
D-----2h3p2---------------]
A-5-0-------3/5-----------]
D-5-0---------------------]

   Heavy Distortion
e-----------------------------]
B-----------------------------]
G-----------------------------]
D-----------------------------]
A---00-0-*2.7-----------------]
D---00-0-*2.7-----------------]
P.M.--
Chorus-(Heavy Distortion)
e-------------------------]
B-------------------------]
G-------------------------]
D-------------------------]
A--5--0000333322----------]
D--5--0000333322----------]
P.M.   ---

Bridge Part 1-(Mild Distortion)
e-------------------------]
B-------------------------]
G-------------------------]
D-------------------------]
A-------------------------]
D--5550000033322222-------]
PM ----------------

e-------------------------]
B-------------------------]
G-------------------------]
D-------------------------]
A--5550000033322222-------]
D--5550000033322222-------]
PM ----------------

e-------------------------]
B-------------------------]
G-------------------------]
D-------------------------]
A-------------------------]
D--5550000033322222-------]

(Play softly)
e-------------------------]
B-------------------------]
G-------------------------]
D-------------------------]
A--5550000033322222-------]
D--5550000033322222-------]

Slide-(Heavy Distortion)
e-------------------------]
B-------------------------]
G-------------------------]
D-------------------------]
A-------------------------]
D--0/12\0-----------------]

e-----------------------------------]
B-----------------------------------]
G-----------------------------------]
D-----------------------------------]
A--12-14-15-17----------------------]
D--12-14-15-17----------------------]
(Hit each power chord^ 8 times)
Chorus-(Heavy Distortion)
e-------------------------]
B-------------------------]
G-------------------------]
D-------------------------]
A--5--0000333322----------]
D--5--0000333322----------]
P.M.   ---

Bridge Part 2-(Mild Distortion)
e-----------------------------------]
B-----------------------------------]
G-----------------------------------]
D-----------------------------------]
A-----------------------------------]
D--55555555000000003333333322222222-]
PM --------------------------------
(You play Bridge Part 2 4 times, on the last time,
 let the 2 ring out for two measures while the bass
 plays the chorus under it.)

Chorus-(Heavy Distortion)
e-------------------------]
B-------------------------]
G-------------------------]
D-------------------------]
A--5--0000333322----------]
D--5--0000333322----------]
P.M.   ---

End by playing the Verse/Intro with a mild distortion,
playing it softer and softer each measure.

ORDER:
Intro- 1
Harmonic- 1
Chorus- 4
Verse- 2
Harmonic- 1
Chorus- 4
Bridge Part 1- 1
Chorus- 4
Bridge Part 2- 4
Chorus- 8
Intro- 1
            

comments powered by Disqus
↑ Back to top | Unsigned Tabs for 241 - Confusion. Lyrics for acoustic guitar and electric guitar. Tablatures and chords are parodies/interpretations of the original songs. You may use it for private study, scholarship, research or language learning purposes only