» » »

Break Free Tabs (ver.4)

Artists:  A B C D E F G H I J K L M N O P Q R S T U V W X Y Z # 

Break Free Tabs (ver.4)

United Live
Rating:
5/5 (4 votes)

Hard to play? Try these video lessons and learn fast.
                

n rin me sa frndzer...
Elow nga pla sa mkkbasa nito sana mka2long sa church ninyo...
Elow din sa CCF especially to Arnold, nat, noah, micz and ritzel and other musician sa 
nmin…and also sa LOG especially to kuya gani, nathan, joseph and jr...

Intro/Verse:
e|----------------------------------------------------------|
B|----------------------------------------------------------|
G|----------------------------------xxxxx-------------------|
D|-------------------5-5-4-5—4--6---xxxxx---5-4-5—4--6------|
A|----------------------------------xxxxx-------------------|
E|--2-2-2-2-2-2-2-2-----------------xxxxx-------------------|


Prechorus:
-------------------------|
-------------------------|
-------------------------|
-------------------------|
-------------------------|
-2-2-2-2~-2-2-2-2~-2-2-2-|


-------------------------|
-------------------------|
-------------------------|
-4-4--6-6---4-4--6-6-----|
-5-5--5-5---5-5--5-5-----|
-------------------------|

Chorus:
A D E F#m D

Bridge:
naku... Pagdating d2 hnd ku msyado makuha... wel I think bka mkatulong ang part n e2... 
ko kc ginagwa ku. Strum mu lng n 2loy2loy para mkuha ung mute n 2nug den pindutin mo n 
ung chords...

instrumental parts:
---------------|
-14-----17-----|
-14-----16-----|
-14-----14-----|
---------------|
---------------|

pagkumanta na…
---------------|
-14-----15-----|
-14-----14-----|
-14-----14-----|
---------------|
---------------|
GLORY TO GOD………………………
            
Hard to play? Try these video lessons and learn fast. | Correct




comments powered by Disqus
↑ Back to top | Tablatures and chords are parodies/interpretations of the original songs. You may use it for private study, scholarship, research or language learning purposes only