» » »

United Live, Break Free Tabs (ver.3)

Artists:  A B C D E F G H I J K L M N O P Q R S T U V W X Y Z # 

Break Free Tabs (ver.3)

United Live Tabs
 Rating:
4.6/5 (10 votes)
Break Free lessons Tabs too difficult? Try these video lessons and learn fast
                ----------------------------------------------------------------------------
                             Break Free - Hillsong United
----------------------------------------------------------------------------


Tuning: standard (EADGBe)

This part that I am tabbing out is the intro/verse and pre-chorus. For the rest of the 
just grab the chords because thats all the rest pretty much is. But this is a great song 
my favorite off of All of the Above. Enjoy.


Intro/Verse:
e|----------------------------------------------------------|
B|----------------------------------------------------------|
G|----------------------------------xxxxx-------------------|
D|-------------------0-0h4p0--4/6---xxxxx---0h4p0--4/6------|
A|----------------------------------xxxxx-------------------|
E|--2-2-2-2-2-2-2-2-----------------xxxxx-------------------|


Pre-Chorus:
e|----------------------------------------------------------|
B|----------------------------------------------------------|
G|----------------------------------------------------------|
D|-------------------------0-0---0--0--0-0---0--0\----------|
A|-------------------------9-9--10-10--9-9--10-10\----------|
E|--2-2-2b-2b--2-2-2b-2b------------------------------------|

Play the verse and pre chorus twice the first time

Chorus(you can figure strumming patterns):
e|---------------------------|
B|---------------------------|
G|-------7---------7---------|
D|--7----7----4----7---------|
A|--7----5----4----5---------|
E|--5---------2--------------|


Repeat Verse, Pre-Chorus and Chorus


Bridge Part 1(figure out strumming patterns):
e|--------------------|
B|--------------------|
G|------------7-------|
D|--2----4----7-------|
A|--2----4----5-------|
E|--0----2------------|


Bridge Part 2(not 100% on this part but its close enough):
e|-------------------------------------------------------------------------|
B|--10-----------------9--9--14-14-----------------------------------------|
G|--11-(a few times)--11-11--11-11-----------------------------------------|
D|-------------------------------------------------------------------------|
A|-------------------------------------------------------------------------|
E|-------------------------------------------------------------------------|
for this part just palm mute and tremelo pick for the most part and then   accent every 
one, on the first set of notes


Bridge Part 3(this is the last couple times before it goes back to chorus):
e|-----------------------------------------|
B|---10-(16x)---9-(16x)---7-(32x)----------|
G|-----------------------------------------|
D|-----------------------------------------|
A|-----------------------------------------|
E|-----------------------------------------|

Repeat Chorus

Outro:
e|--------------------|
B|--------------------|
G|--------------------|
D|--------------------|
A|--------------------|
E|--2-2-2-2-2-2-2-2---|


|Legend|
| /  slide up
| \  slide down
| h  hammer-on
| p  pull-off
| b  bend
| x  Mute note

============================================================================
            
Submit corrections

comments powered by Disqus
↑ Back to top | United Live Tabs for Break Free. Lyrics for acoustic guitar and electric guitar. Tablatures and chords are parodies/interpretations of the original songs. You may use it for private study, scholarship, research or language learning purposes only