» » »

United Live, Break Free Tabs (ver.1)

Artists:  A B C D E F G H I J K L M N O P Q R S T U V W X Y Z # 

Break Free Tabs (ver.1)

United Live Tabs
 Rating:
3.4/5 (9 votes)
Break Free lessons Tabs too difficult? Try these video lessons and learn fast
                -----------------------------------------------------------------------------

song           : Break Free
artist         : United Live
album          : All of the Above
track number   : 2

This song has a kind of Funky and Groovie Style
i would like to dedicate this tab to our band 'skyfruit'.
Praise Him with the strings [Psalm 150:4]

Standard Tuning
Gtr.1 - use Fuzz Face Distortion; Clean with Phazer
Gtr.2 - use Classic Distortion
Gtr.3 - synth effect

Legend:
b - bend
r - release
/ - slide up
\ - slide down
* - harmonic
x - dead string

Intro:

Gtr1. - 2x
e|--------------------------------------------------x--x--x--x------------------|
b|--------------------------------------------------x--x--x--x------------------|
g|--------------------------------------------------x--x--x--x------------------|
d|---------------------------------------4---4--6---x--x--x--x-------4---4--6b--|
a|-----------------------------------5-5---5--------5*-5*-5*-5*----5---5--------|
E|--2-2-2-2-2-2-2-2-2-2-2-2-2-2-2-2---------------------------------------------|

Verse 1:

Gtr1. - 2x
e|--------------------------------------------------x--x--x--x------------------|
b|--------------------------------------------------x--x--x--x------------------|
g|--------------------------------------------------x--x--x--x------------------|
d|---------------------------------------4---4--6---x--x--x--x-------4---4--6b--|
a|-----------------------------------5-5---5--------5*-5*-5*-5*----5---5--------|
E|--2-2-2-2-2-2-2-2-2-2-2-2-2-2-2-2---------------------------------------------|

Gtr1. - 1x
e|------------------------------------------------------------------------------|
b|------------------------------------------------------------------------------|
g|------------------------------------------------------------------------------|
d|-----------------------------------4--4---6--6---4--4---6--6------------------|
a|-----------------------------------5--5---5--5---5--5---5--5------------------|
E|--2-2-2b-2b--2-2-2b-2b--2-2-2b------------------------------------------------|

Verse 2:

Gtr1. - 2x
e|--------------------------------------------------x--x--x--x------------------|
b|--------------------------------------------------x--x--x--x------------------|
g|--------------------------------------------------x--x--x--x------------------|
d|---------------------------------------4---4--6---x--x--x--x-------4---4--6b--|
a|-----------------------------------5-5---5--------5*-5*-5*-5*----5---5--------|
E|--2-2-2-2-2-2-2-2-2-2-2-2-2-2-2-2---------------------------------------------|

Gtr2. - 2x
e|------------------------------------------------------------------------------|
b|------------------------------------------------------------------------------|
g|-----------------------------------7-7-7-7-7-7----x--x--x--x-----7-7-7-7-7-7--|
d|--4-4-4-4-4-4-4-4-4-4-4-4-4-4-4-4--7-7-7-7-7-7----x--x--x--x-----7-7-7-7-7-7--|
a|-----------------------------------5-5-5-5-5-5----x--x--x--x-----5-5-5-5-5-5--|
E|--2-2-2-2-2-2-2-2-2-2-2-2-2-2-2-2---------------------------------------------|

Pre Chorus:

Gtr1. - 1x
e|------------------------------------------------------------------------------|
b|------------------------------------------------------------------------------|
g|------------------------------------------------------------------------------|
d|-----------------------------------4--4---6--6---4--4---6--6------------------|
a|-----------------------------------5--5---5--5---5--5---5--5------------------|
E|--2-2-2b-2b--2-2-2b-2b--2-2-2b------------------------------------------------|

Gtr2. - 1x
e|------------------------------------------------------------------------------|
b|------------------------------------------------------------------------------|
g|-----------------------------------7--7---7--7---7--7---7--7------------------|
d|--4-4-4-4-4-4-4-4-4-4-4-4-4-4-4-4--7--7---7--7---7--7---7--7------------------|
a|-----------------------------------5--5---5--5---5--5---5--5------------------|
E|--2-2-2-2-2-2-2-2-2-2-2-2-2-2-2-2---------------------------------------------|

Gtr1. - 1x
e|------------------------------------------------------------------------------|
b|------------------------------------------------------------------------------|
g|------------------------------------------------------------------------------|
d|-----------------------------------4-4-4-4-4-7-7-7-7-7-7-7-7------------------|
a|-----------------------------------5-5-5-5-5-5-5-5-5-5-5-5-5------------------|
E|--2-2-2b-2b--2-2-2b-2b--2-2-2b------------------------------------------------|

Gtr2. - 1x
e|------------------------------------------------------------------------------|
b|------------------------------------------------------------------------------|
g|-----------------------------------7-7-7-7-7-7-7-7-7-7-7-7-7------------------|
d|--4-4-4-4-4-4-4-4-4-4-4-4-4-4-4-4--7-7-7-7-7-7-7-7-7-7-7-7-7------------------|
a|-----------------------------------5-5-5-5-5-5-5-5-5-5-5-5-5------------------|
E|--2-2-2-2-2-2-2-2-2-2-2-2-2-2-2-2---------------------------------------------|

Chorus:

Gtr1. - 1x
e|-----------------------------------|------------------------------------------|
b|--14-14-14-14-14-14-14-14-14-14-14-|-15-15-15-15-15-15-15-15-15-15-15---------|
g|--14-14-14-14-14-14-14-14-14-14-14-|-14-14-14-14-14-14-14-14-14-14-14---------|
d|--14-14-14-14-14-14-14-14-14-14-14-|-12-12-12-12-12-12-12-12-12-12-12---------|
a|-----------------------------------|------------------------------------------|
E|-----------------------------------|------------------------------------------|

Gtr2. - 1x
e|-----------------------------------|------------------------------------------|
b|-----------------------------------|------------------------------------------|
g|-----------------------------------|--7--7--7--7--7--7--7--7--7--7--7---------|
d|--7--7--7--7--7--7--7--7--7--7--7--|--7--7--7--7--7--7--7--7--7--7--7---------|
a|--7--7--7--7--7--7--7--7--7--7--7--|--5--5--5--5--5--5--5--5--5--5--5---------|
E|--5--5--5--5--5--5--5--5--5--5--5--|------------------------------------------|

Gtr1. - 1x
e|-----------------------------------|------------------------------------------|
b|--14-14-14-14-14-14-14-14-14-14-14-|-15-15-15-15--15-15-15-15--15-15----------|
g|--14-14-14-14-14-14-14-14-14-14-14-|-14-14-14-14--14-14-14-14--14-14----------|
d|--14-14-14-14-14-14-14-14-14-14-14-|-12-12-12-12--12-12-12-12--12-12----------|
a|-----------------------------------|------------------------------------------|
E|-----------------------------------|------------------------------------------|

Gtr.2 - 1x
e|-----------------------------------|------------------------------------------|
b|-----------------------------------|------------------------------------------|
g|--9--9--11-11-11-11-11-11-11-11-11-|-7--7--7--7----7--7--7--7---7--7----------|
d|--9--9--11-11-11-11-11-11-11-11-11-|-7--7--7--7----7--7--7--7---7--7----------|
a|--7--7--9--9--9--9--9--9--9--9--9--|-5--5--5--5----5--5--5--5---5--5----------|
E|-----------------------------------|------------------------------------------|

- repeat intro riff for pre-verse
- repeat verse
- repeat pre-chorus
- repeat chorus

Bridge:
- Drum Solo

Gtr1. - 4x
e|------------------------------------------|-----------------------------------|
b|------------------------------------------|-----------------------------------|
g|--4-4-4-4-4-4-4-4-6--6--6--6--6--6--6--6--|-7-7-7-7-7-7-7-7-7-7-7-7-7---------|
d|--2-2-2-2-2-2-2-2-4--4--4--4--4--4--4--4--|-7-7-7-7-7-7-7-7-7-7-7-7-7---------|
a|--2-2-2-2-2-2-2-2-4--4--4--4--4--4--4--4--|-5-5-5-5-5-5-5-5-5-5-5-5-5---------|
E|------------------------------------------|-----------------------------------|

Gtr2. - 4x
e|------------------------------------------|-----------------------------------|
b|------------------------------------------|-----------------------------------|
g|--9-9-9-9-9-9-9-9-11-11-11-11-11-11-11-11-|-7-7-7-7-7-7-7-7-7-7-7-7-7---------|
d|--9-9-9-9-9-9-9-9-11-11-11-11-11-11-11-11-|-7-7-7-7-7-7-7-7-7-7-7-7-7---------|
a|--7-7-7-7-7-7-7-7-9--9--9--9--9--9--9--9--|-5-5-5-5-5-5-5-5-5-5-5-5-5---------|
E|------------------------------------------|-----------------------------------|

Breakdown:

Gtr.1 - [alternate picking]
e|------------------------------------------------------------------------------|
b|--14-14-x-14-14-14-14-x-14-14-x-14-14-17-17-17--------------------------------|
g|--14-14-x-14-14-14-14-x-14-14-x-14-14-16-16-16--------------------------------|
d|--14-14-x-14-14-14-14-x-14-14-x-14-14-14-14-14--------------------------------|
a|------------------------------------------------------------------------------|
E|------------------------------------------------------------------------------|

Gtr.1 - [when they start singing "so won't you break free!"]
e|------------------------------------------------------------------------------|
b|--14-14-x-14-14-14-14-x-14-14-x-14-14-15-15-15--------------------------------|
g|--14-14-x-14-14-14-14-x-14-14-x-14-14-14-14-14--------------------------------|
d|--14-14-x-14-14-14-14-x-14-14-x-14-14-14-14-14--------------------------------|
a|------------------------------------------------------------------------------|
E|------------------------------------------------------------------------------|

e|------------------------------------------------------------------------------|
b|--14-14-x-14-14-14-14-x-14-14-x-14-14-17-17-17--------------------------------|
g|--14-14-x-14-14-14-14-x-14-14-x-14-14-16-16-16--------------------------------|
d|--14-14-x-14-14-14-14-x-14-14-x-14-14-14-14-14--------------------------------|
a|------------------------------------------------------------------------------|
E|------------------------------------------------------------------------------|

Gtr.2 [keep on repeating this riff]
e|------------------------------------------------------------------------------|
b|------------------------------------------------------------------------------|
g|--14----13h14----------13h14--------14----13h14----------13h14----------------|
d|-----14-------14----14-------14--------14-------14----14-------14-------------|
a|------------------------------------------------------------------------------|
E|------------------------------------------------------------------------------|

Gtr.3 [enters with a synth effect] - 2x
e|---17-17-17-17-17-17-17-17-16-16-16-16-16-16-16-16-12-12-12-12-12-12-12-12-12-|
b|------------------------------------------------------------------------------|
g|------------------------------------------------------------------------------|
d|------------------------------------------------------------------------------|
a|------------------------------------------------------------------------------|
E|------------------------------------------------------------------------------|

- repeat chorus

Ending:

Gtr.1
e|------------------------------------------------------------------------------|
b|------------------------------------------------------------------------------|
g|------------------------------------------------------------------------------|
d|------------------------------------------------------------------------------|
a|------------------------------------------------------------------------------|
E|--2-2-2-2-2-2-2-2-2-2-2-2-2-2-2-2---------------------------------------------|

Gtr.2
e|------------------------------------------------------------------------------|
b|------------------------------------------------------------------------------|
g|------------------------------------------------------------------------------|
d|--4-4-4-4-4-4-4-4-4-4-4-4-4-4-4-4---------------------------------------------|
a|------------------------------------------------------------------------------|
E|--2-2-2-2-2-2-2-2-2-2-2-2-2-2-2-2---------------------------------------------|


Verse 1
Would you believe me, would you listen if I told you that
There is a love that makes the way, it never holds you back

Verse 2
Who would have thought that God would give his one and only Son
Taken a stand upon the cross to show his perfect love

Pre-chorus
So would you break free, would you break free get up and dance, in His love

Chorus
His love never ending
There's no escaping the truth, there's no mistaking its you
God forever we'll get up and dance, get up and dance and praise you
There's no escaping your love, there's no mistaking your light
Across the world we will get up and dance, get up and dance and praise you

Verse 3
Now is the time to take this freedom that has come our way
Offer our lives to see the glory of His name

Bridge
And for all our days
We are holding on, holding onto all your ways
We are holding on, holding on to all you've said and you've done
We are holding on to your love
Now we will dance
            
Submit corrections

comments powered by Disqus
↑ Back to top | United Live Tabs for Break Free. Lyrics for acoustic guitar and electric guitar. Tablatures and chords are parodies/interpretations of the original songs. You may use it for private study, scholarship, research or language learning purposes only