» » »

United Live, Break Free Bass tabs (ver.2)

Artists:  A B C D E F G H I J K L M N O P Q R S T U V W X Y Z # 

Break Free Bass tabs (ver.2)

United Live Tabs
 Rating:
4/5 (4 votes)
Break Free lessons Tabs too difficult? Try these video lessons and learn fast
1
                BREAK FREE
UNITED LIVE
ALL OF THE ABOVE {2007}

BASS GUITAR
if you have a question just add
Christ to The World church
jerico @ GOD`S ARMY

Intro: Elec Guitar

Verses
G)----------------|---------------|
D)----------------|---------------|
A)-------------9-7|--------9-9-7-7|
E)2s14s2-2-2-2----|--2-2-2--------|
B)----------------|---------------|

G)-------------|---------------|
D)-------------|---------------|
A)5-5-5-5--5--5|--5-5-5--------|
E)-------------|--------5-5-4-4|
B)-------------|---------------|

G)-------------|---------------|
D)-------------|--------7-7-6-6|
A)5-5-5-5--5--5|--5-5-5--------|
E)-------------|---------------|
B)-------------|---------------|


Pre-Chorus
G)-----------|--------------------|
D)-----------|--------------------|
A)----7-7-9-9|----7-7-9-9--9-9-9-9|
E)2-2--------|2-2-----------------|
B)-----------|--------------------|

-------------------|
-------------------|
-5-5--5-5--5-5--5-5|
-------------------|
-------------------|


Chorus:
A D (A G#) F#m D

In the chorus instead of playing the E to go to the F# play the notes in (A G#) on the E 
which is the 5-4.

Bridge:
E F#m D x 4

On the last 2 times he plays A G# on the D string which is the 12-11.

Instrumental:
G)------------|---------------|
D)------------|---------------|
A)---------9-7|--------9-9-7-7|
E)-2-2-2-2----|--2-2-2--------|
B)------------|---------------|

G)-------------|-------------------|
D)-------------|-------------------|
A)2-2-2-0--2--2|-2-2-2--5-5--------|
E)-------------|------------5-4----|
B)-------------|-------------------|

G)------------|---------------|
D)------------|---------------|
A)---------9-7|--------9-9-7-7|
E)-2-2-2-2----|--2-2-2--------|
B)------------|---------------|

G)-------------|-------------------|
D)-------------|--------9-9-7-7----|
A)2-2-2-0--2--2|-2-2-2-------------|
E)-------------|-------------------|
B)-------------|-------------------|


Pre-Chorus 2:
G)-----------|-------------------|
D)-----------|-------------------|
A)----7-7-9-9|----7-7-9-9-9-9-9-9|
E)2-2--------|2-2----------------|
B)-----------|-------------------|

-------------|-------------------|
-------------|-------------------|
2-2-2-0--2--2|-2-2-2--5-5--------|
-------------|------------5-4----|
-------------|-------------------|

G)-----------|-------------------|
D)-----------|-------------------|
A)----7-7-9-9|----7-7-9-9-9-9-9-9|
E)2-2--------|2-2----------------|
B)-----------|-------------------|

-------------|-------------------|
-------------|-------7-7-6-6-----|
2-2-2-0--2--2|-2-2-2-------------|
-------------|-------------------|
-------------|-------------------|

G)-----------|-------------------|
D)-----------|---------------11--|
A)----7-7-9-9|----7-7-9-9-9-9---9|
E)2-2--------|2-2----------------|
B)-----------|-------------------|

-------------|-------------------|
-------------|-------------------|
2-2-2-0--2--2|-2-2-2--5-5--------|
-------------|------------5-4----|
-------------|-------------------|

G)-----------|-------------------|
D)-----------|---------------11--|
A)----7-7-9-9|----7-7-9-9-9-9---9|
E)2-2--------|2-2----------------|
B)-----------|-------------------|

---------------|-----------------|
---------------|-----------------|
2-2-2-2-2-2-2-2|-5-5-5-5-5-5-5-5-|
---------------|-----------------|
---------------|-----------------|

If you have questions ask them and if you want a more broken down version let me know, 
Bless and I hope this helps!!
            
Submit corrections

comments powered by Disqus
↑ Back to top | United Live Bass for Break Free. Lyrics for acoustic guitar and electric guitar. 1 Tablatures and chords are parodies/interpretations of the original songs. You may use it for private study, scholarship, research or language learning purposes only