» » »

United Live, Break Free Bass tabs (ver.1)

Artists:  A B C D E F G H I J K L M N O P Q R S T U V W X Y Z # 

Break Free Bass tabs (ver.1)

United Live Tabs
 Rating:
4.5/5 (8 votes)
Break Free lessons Tabs too difficult? Try these video lessons and learn fast
1
                break free

intro: electric guitar

verse 1,2,3
G|----------------------------------------------|
D|------------4-2------44-22--------------------|
A|----------------------------55-55-555---------|
E|---\\\2-22-------222------------------55-44---|

G|----------------------------------------------|
D|--------4-2-------44-22---------------77-66---|
A|----------------------------55-55-555---------|
E|----22-------222------------------------------|

Pre-chorus:

G|---------------------------------------------------|
D|--------22-44------22-44-444444--------------------|
A|--------------------------------55-55-555----------|
E|----22--------222-------------------------55-44----|


G|---------------------------------------------------|
D|--------22-44------22-44-444444-----------77-66----|
A|--------------------------------55-55-555----------|
E|----22--------222----------------------------------|

chorus:2x

G|---------------------------------------------|
D|---------------------------------------------|
A|------------55555555-------------55555555----|
E|---55555555-----------s22222222--------------|


bridge: 2x

G|---------------------------------------------|
D|---------------------------------------------|
A|--77777777-99999999-55555-55-----------------|
E|------------------------------55-44----------|

G|---------------------------------------------|
D|------------------------------77-66----------|
A|--77777777-99999999-55555-55-----------------|
E|---------------------------------------------|

instrumental:

G|----------------------------------------------|
D|---------44-22-------44-22--s66664444444------|
A|----------------------------------------------|
E|----2222-------2222---------------------------|

enter the song so won't you break free won't you break free

G|----------------------------------------------|
D|---------44-22-------44-22--s66664444444------|
A|----------------------------------------------|
E|----2222-------2222---------------------------|
            
Submit corrections

comments powered by Disqus
↑ Back to top | United Live Bass for Break Free. Lyrics for acoustic guitar and electric guitar. 1 Tablatures and chords are parodies/interpretations of the original songs. You may use it for private study, scholarship, research or language learning purposes only