>
 >
Illuminator 2

Illuminator 2 Guitar Tabs

Underoath - Illuminator 2 chords, tabs, tablatures, lyrics

Guitar lessons | Add/correct | Request | Top 50 tabs Artists:  A B C D E F G H I J K L M N O P Q R S T U V W X Y Z 0-9

Illuminator 2 Guitar Tabs – Underoath

CD, Sheet music, Poster

Do you like Illuminator 2? Share with your friends now
TabsTabs v2Tabs v3Tabs v4
Band: Underoath
Tuning: Drop D

I've only tabbed out guitar 1.

Intro/verse 1
|----------------------------------------|
|----------------------------------------|
|----------------------------------------|
|-------------------6--------------------| x4
|----5/------3------3-----3--------------|
|--------0-1----0-1---0-1---1-0-1--------|

Pre-chorus  x64 strums per chord. Strum fast. (Listen for when to bend the strings.)
|---------|  |---------|
|---------|  |---------|
|----7----|  |----7----|
|----x----|  |----10---|
|----10---|  |---------|
|---------|  |---------|

Chorus
(Again, strum these chords quickly. Listen for when to switch chords. Guitar 2 plays 
but I haven't figured out guitar 2 yet.)
|---------|  |---------|
|-----6---|  |----8----|
|-----7---|  |----7----|
|-----7---|  |----5----|
|-----5---|  |----6----|
|---------|  |---------|

Verse 2
|----------------------------------------|
|----------------------------------------|
|----------------------------------------|
|-------------------6--------------------| x3
|----5/------3------3-----3--------------|
|--------0-1----0-1---0-1---1-0-1--------|

Breakdown
|----------------------------------------|
|----------------------------------------|
|----------------------------------------|
|---0-3-2-0-8-0-3-2-0-3-2-0--------------| x4
|---0-3-2-0-8-0-3-2-0-3-2-0--------------|
|---0-3-2-0-8-0-3-2-0-3-2-0--------------|

Guitar 2 continues that while guitar 1 plays this over it strumming at a regular speed.
|----------|
|----------|
|----7-----|
|----x-----| x24 strums
|----10----|
|----------|

Bridge 1:35-1:42 guitar 1 strums this. Fast.
|----------|
|----------|
|----7-----|
|----7-----|
|----5-----|
|----------|

Then breakdown.
|-----|----------------------------------|
|-----|----------------------------------|
|----7|-7--7-7--x-7-7--x-7-7--x----------|
|----x|-x--x-x--x-x-x--x-x-x--x----------| x4
|----5|-5--5-5--x-5-5--x-5-5--x----------|
|-----|----------------------------------|

Chorus
|---------|  |---------|
|-----6---|  |----8----|
|-----7---|  |----7----|
|-----7---|  |----5----|
|-----5---|  |----6----|
|---------|  |---------|

Outro
|----------------------------------------|
|----------------------------------------|
|----------------------------------------|
|---0--2-0-8-0-------------x-x-4-x-x-4---|
|---0--2-0-8-0-------------x-x-4-x-x-4---|
|---0--2-0-8-0-------------x-x-4-x-x-4---|

|----------------------------------------|
|----------------------------------------|
|----------------------------------------|
|---0--2-0-8-0-------------x-x-2-x-x-2---|
|---0--2-0-8-0-------------x-x-2-x-x-2---|
|---0--2-0-8-0-------------x-x-2-x-x-2---|

|----------------------------------------|
|----------------------------------------|
|----------------------------------------|
|---0--2-0-8-0-------------x-x-4-x-x-4---|
|---0--2-0-8-0-------------x-x-4-x-x-4---|
|---0--2-0-8-0-------------x-x-4-x-x-4---|

|----------------------------------------|
|----------------------------------------|
|----------------------------------------|
|---0--2-0-8-0-------------x-x-2-x-x-2---|
|---0--2-0-8-0-------------x-x-2-x-x-2---|
|---0--2-0-8-0-------------x-x-2-x-x-2---|

That's it! Enjoy!





Comments


Popular Underoath tabs & chords
Dive Bass Tabs
Everyone Looks So Good From Here Bass Tabs
Desolate Earth The End Is Here Chords
A Boy Brushed Red Living In Black White Tabs
A Fault Line, A Fault Of Mine Tabs
Casting Such A Thin Shadow 1 Tabs
I Dont Feel Very Respective Today Tabs
Im Content With Losing Tabs
Wrapped Around Your Finger Tabs
When The Sun Sleeps Ukulele


Song lyrics



↑ Back to top | Tablatures and chords are parodies/interpretations of the original songs. You may use it for private study, scholarship, research or language learning purposes only
© 2014 AZChords.com Contact us | Privacy policy | DMCA | Add/correct tabs | Request tabs | Top 50 tabs