» » »

Illuminator Tabs (ver.1)

Artists:  A B C D E F G H I J K L M N O P Q R S T U V W X Y Z # 

Illuminator Tabs (ver.1)

Underoath
Rating:
0/5 (0 votes)

Hard to play? Try these video lessons and learn fast.
                Band: Underoath
Tuning: Drop D

Intro/verse 1
|----------------------------------------|
|----------------------------------------|
|----------------------------------------|
|-------------------6--------------------| x4
|----5/------3------3-----3--------------|
|--------0-1----0-1---0-1---1-0-1--------|

Pre-chorus  x64 strums per chord. (Listen for when to bend the strings.)
|---------|  |---------|
|---------|  |---------|
|----7----|  |----7----|
|----x----|  |----10---|
|----10---|  |---------|
|---------|  |---------|

Chorus
(Listen for when to switch chords. Guitar 2 plays something but I haven't figured out 
2 yet.)
|---------|  |---------|
|---------|  |---------|
|-----7---|  |----7----|
|-----7---|  |----5----|
|-----5---|  |----6----|
|---------|  |---------|

Verse 2
|----------------------------------------|
|----------------------------------------|
|----------------------------------------|
|-------------------6--------------------| x3
|----5/------3------3-----3--------------|
|--------0-1----0-1---0-1---1-0-1--------|

Breakdown
|----------------------------------------|
|----------------------------------------|
|----------------------------------------|
|-----3-2-0---0-3-2-0-3-2-0--------------| x4
|-----3-2-0-1-0-3-2-0-3-2-0-1------------|
|-----3-2-0---0-3-2-0-3-2-0--------------|

Guitar 2 continues that while guitar 1 plays this over it.
|----------|
|----------|
|----7-----|
|----x-----| x24 strums
|----10----|
|----------|

Bridge 1:35-1:42 guitar 1 strums this.
|----------|
|----------|
|----7-----|
|----7-----|
|----5-----|
|----------|

|-----|----------------------------------|
|-----|----------------------------------|
|----7|-7--7-7--x-7-7--x-7-7--x----------|
|----x|-x--x-x--x-x-x--x-x-x--x----------| x4
|----5|-5--5-5--x-5-5--x-5-5--x----------|
|-----|----------------------------------|

Chorus
|---------|  |---------|
|---------|  |---------|
|-----7---|  |----7----|
|-----7---|  |----5----|
|-----5---|  |----6----|
|---------|  |---------|

Outro
|----------------------------------------|
|----------------------------------------|
|----------------------------------------|
|---0--2-0---0-------------x-x-4-x-x-4---|
|---0--2-0-1-0-------------x-x-4-x-x-4---|
|---0--2-0---0-------------x-x-4-x-x-4---|

|----------------------------------------|
|----------------------------------------|
|----------------------------------------|
|---0--2-0---0-------------x-x-2-x-x-2---|
|---0--2-0-1-0-------------x-x-2-x-x-2---|
|---0--2-0---0-------------x-x-2-x-x-2---|

|----------------------------------------|
|----------------------------------------|
|----------------------------------------|
|---0--2-0---0-------------x-x-4-x-x-4---|
|---0--2-0-1-0-------------x-x-4-x-x-4---|
|---0--2-0---0-------------x-x-4-x-x-4---|

|----------------------------------------|
|----------------------------------------|
|----------------------------------------|
|---0--2-0---0-------------x-x-2-x-x-2---|
|---0--2-0-1-0-------------x-x-2-x-x-2---|
|---0--2-0---0-------------x-x-2-x-x-2---|

That's it! Enjoy!
            
Hard to play? Try these video lessons and learn fast. | Correct




comments powered by Disqus
↑ Back to top | Tablatures and chords are parodies/interpretations of the original songs. You may use it for private study, scholarship, research or language learning purposes only