» » »

Underoath, Illuminator Tabs (ver.2)

Artists:  A B C D E F G H I J K L M N O P Q R S T U V W X Y Z # 

Illuminator Tabs (ver.2)

Underoath Tabs
Rating:
0/5 (0 votes)
Illuminator lessons Tabs too difficult? Try these video lessons and learn fast
                Illuminator - Underoath

Intro 4x   "Awake....Nothing beyond here"
e|--------------------------------------------------------------------|
b|--------------------------------------------------------------------|
G|--------------------------------------------------------------------|
D|--------------------------------------------------------------------|
A|----------5-----3-------5-----3-------3-----------------------------|
D|------------0-1---1-0-----0-1---1-0-1-------------------------------|


Verse   'How do I know what side Im on....hunt me down'
e|--------------------------------------------------------------------|
b|--------------------------------------------------------------------|
G|--7---5---7---5---10---7---5---10---12---10---7---5---10---12-------|
D|----------------------------------------------------------------0---|
A|----------------------------------------------------------------0---|
D|----------------------------------------------------------------0---|
  Tremolo picking


Intro again 3x   'Weigh out the options'
e|--------------------------------------------------------------------|
b|--------------------------------------------------------------------|
G|--------------------------------------------------------------------|
D|--------------------------------------------------------------------|
A|--5-----3-------5-----3-------3-------------------------------------|
D|----0-1---1-0-----0-1---1-0-1---------------------------------------|


   'Come on man I swear you can do this'
e|--------------------------------------------------------------------|
b|--------------------------------------------------------------------|
G|--------------------------------------------------------------------|
D|--3--1--0--3--3--1--3--1--0--3--3--1--0--1--------------------------|
A|--3--1--0--1--3--1--3--1--0--1--3--1--0--1--------------------------|
D|--3--1--0-----3--1--3--1--0-----3--1--0--1--------------------------|
  
         'I break free'
e|--------------------------------------------------------------------|
b|--------------------------------------------------------------------|
G|--------------------------------------------------------------------|
D|--------12--12----12--12--0--12--12--0--12--12--0--12---------------|
A|--------12--12----12--12--0--12--12--0--12--12--0--12---------------|
D|--------12--12----12--12--0--12--12--0--12--12--0--12---------------|
   Pm                       .          .          .

e|--------------------------------------------------------------------|
b|--------------------------------------------------------------------|
G|--------------------------------------------------------------------|
D|--12--12--0--12--12--0--12--12--0--12-12-12--0--12--12--0--12--12--0|
A|--12--12--0--12--12--0--12--12--0--12-12-12--0--12--12--0--12--12--0|
D|--12--12--0--12--12--0--12--12--0--12-12-12--0--12--12--0--12--12--0|
   Pm       .          .          .            .          .          .


e|--------------------------------------------------------------------|
b|--------------------------------------------------------------------|
G|--------------------------------------------------------------------|
D|--12---12--12--0--12--12--0--12--12--0--12--12----------------------|
A|--12---12--12--0--12--12--0--12--12--0--12--12----------------------|
D|--12---12--12--0--12--12--0--12--12--0--12--12----------------------|
   Pm            .          .          .      Let this ring out


   'This is where they all come to hunt me down'
e|--------------------------------------------------------------------|
b|--------------------------------------------------------------------|
G|--10--7--5--10--12----10--7--5--8-----------------------------------|
D|--------------------------------------------------------------------|
A|--------------------------------------------------------------------|
D|--------------------------------------------------------------------|
   Tremolo picking

  2x  'I tore out my lying eyes'
e|--------------------------------------------------------------------|
b|--------------------------------------------------------------------|
G|--------------------------------------------------------------------|
D|--0--1--0--8--0----00--3--0--3-----0--1--0--8--0----00--1--0--1-----|
A|--0--1--0--8--0----00--3--0--3-----0--1--0--8--0----00--1--0--1-----|
D|--0--1--0--8--0----00--3--0--3-----0--1--0--8--0----00--1--0--1-----|
   Pm                ..     .                         ..     .
 
  Ending chord
e|--------------------------------------------------------------------|
b|--------------------------------------------------------------------|
G|--------------------------------------------------------------------|
D|--0-----------------------------------------------------------------|
A|--0-----------------------------------------------------------------|
D|--0-----------------------------------------------------------------|

I'm not sure if this is all right, but it all sounds pretty close.
            
Submit corrections

comments powered by Disqus
↑ Back to top | Underoath Tabs for Illuminator. Lyrics for acoustic guitar and electric guitar. Tablatures and chords are parodies/interpretations of the original songs. You may use it for private study, scholarship, research or language learning purposes only