» » »

Underoath, A Moment Suspended In Time Tabs (ver.3)

Artists:  A B C D E F G H I J K L M N O P Q R S T U V W X Y Z # 

A Moment Suspended In Time Tabs (ver.3)

Underoath Tabs
 Rating:
4.4/5 (7 votes)
A Moment Suspended In Time lessons Tabs too difficult? Try these video lessons and learn fast
                there's some parts missing in this song that i didnt get the chance to figure out.  they 
really easy so im sure you can figure them out on your own.  if not, oh well then.  
me with corrections if ya find any. oh by the way this is my first tab...so if its tough to read...im sorry.

E|--------------------------------------------------------|
B|-3-3-3-3-3-3-3-3----------------------------------------|
G|-2-2-2-2-2-2-2-2-10-10-10-10-7-7-7-7---x4---------------|
D|-0-0-0-0-0-0-0-0-10-10-10-10-5-5-5-5--------------------|
A|-0-0-0-0-0-0-0-0--8--8--8--8-5-5-5-5--------------------|
D|-0-0-0-0-0-0-0-0--8--8--8--8-5-5-5-5--------------------|

E|--------------------------------------------------------|
B|--------------------------------------------------------|
G|--------------------------------------------------------|
D|-3~-----------------------------------------------------|
A|-2~-----------------------------------------------------|
D|-1~-----------------------------------------------------|


E|--------------------------------------------------------|
B|-3------------------------------------------------------|
G|-2--5--10-----------------------------------------------|
D|-0--3--10-5/7-7-7---------------------------------------|
A|-0--3---8-5/7-7-7---------------------------------------|
D|-0--3---8-5/7-7-7---------------------------------------|

^^^strum those

E|--------------------------------------------------------|
B|-----7-7-7-7-10-10-10-10--------------------------------|
G|-10---8-8-8-8--8--8--8--8-------------------------------|
D|-10-----------------------------------------------------|
A|--8-----------------------------------------------------|
D|--8-----------------------------------------------------|

^^^havent figured out the whole part yet

E|--------------------------------------------------------|
B|-3---------3--------------------------------------------|
G|-2-5-10--9-2-5-10--9-7----------------------------------|
D|-0-5-10-10-0-5-10-10-5----------------------------------|
A|-0-3--8--8-0-3--8--8-5----------------------------------|
D|-0-3--8--8-0-3--8--8-5----------------------------------|

^^^strum these out to the timing

E|--------------------------------------------------------|
B|---6-------6---------6------6---------------------------|
G|---9-x14---9-x14-----9-x2---9-x8------------------------|
D|-0-------0-------0-0------0------0-0--0-----------------|
A|-0-------0-------0-0------0------0-0--0-----------------|
D|-0-------0-------0-0------0------0-0--0-----------------|

E|---------0-----------------------------0-----1-------1----|
B|---------6-------6------6--------------6-----1-x12---1----|x5
G|-3-2-------------9-x8---9-x12-3-2-------------------------|
D|-3-2-0-p0--2-3-0------0-------3-2-0-p0---2-3-------0------|
A|-1-0-0-p0------0------0-------1-0-0-p0-------------0------|
D|-----0-p0------0------0-----------0-p0-------------0------|

^^^repeat x2

E|---------------------------------------------------------|
B|----------6^---------------------------------------------|
G|-3-2------9^---------------------------------------------|
D|-3-2-0-p0------------------------------------------------|
A|-1-0-0-p0------------------------------------------------|
D|-----0-p0------------------------------------------------|

^^^last part of the breakdown

E|-----------------|
B|------3----------|
G|------2--------7-|
D|--2-2-0~---2-2-5-|
A|-0-1--0~--0-1--5-|
D|------0~-------5-|

^^^play x2

E|--0-0--0-0--0--0-|
B|-10-8-13-8-18-17-|
G|-----------------|
D|-----------------|
A|-----------------|
D|-----------------|

^^^play x2

E|-----------------|
B|------3----------|
G|------2--------7-|
D|--2-2-0~---2-2-5-|
A|-0-1--0~--0-1--5-|
D|------0~-------5-|

^^^play x4

E|--0--0-|
B|-18-17-|
G|-------|
D|-------|
A|-------|
D|-------|

^^^this is the second guitar for the part above, it also ends the song
            
Submit corrections

comments powered by Disqus
↑ Back to top | Underoath Tabs for A Moment Suspended In Time. Lyrics for acoustic guitar and electric guitar. Tablatures and chords are parodies/interpretations of the original songs. You may use it for private study, scholarship, research or language learning purposes only