» » »

Underoath, A Moment Suspended In Time Tabs (ver.2)

Artists:  A B C D E F G H I J K L M N O P Q R S T U V W X Y Z # 

A Moment Suspended In Time Tabs (ver.2)

Underoath Tabs
Rating:
3/5 (3 votes)
A Moment Suspended In Time lessons Tabs too difficult? Try these video lessons and learn fast
                im not going to even write the times each chord is played because a)im lazy, and b)im
drugged right now because i had my wisdom teeth out so i thought this would pass the time.
still know what im typing though, so this tab should be like 97 percent right. i dont 
much of the lead for this song though. i have a few more new underoath songs figured
so just be on the look-out for them.

intro x2
e :-----8-----3-----1------------------------------------|
B :-----6-----3-----1------------------------------------|
G :-----7-----0-----x------------------------------------|
D :-----------------3------------------------------------|
A :------------------------------------------------------|
D :------------------------------------------------------|

verse part 1 x2
e :------------------------------------------------------|
B :------------------------------------------------------|
G :----7-------------------------------------------------|
D :----7----5--7-8---10----------------------------------|
A :----5----5--7-8---10----------------------------------|
D :---------5--7-8---10----------------------------------|

verse part 2  x2
e :------------------------------------------------------|
B :------------------------------------------------------|
G :---9-10-9---7--3--5-----12----------------------------|
D :---x-x--x---x--x--x-----x-----------------------------|
A :---7-8--7---5--1--3-----10----------------------------|
D :------------------------------------------------------|

verse part 3 x2 the spaces here represent the timing. this might be just the bass part,
it still sounds good.
e :------------------------------------------------------|
B :------------------------------------------------------|
G :------------------------------------------------------|
D :---0--0-----00--000000----8------5--------------------|
A :---0--0-----00--000000----8------5--------------------|
D :---0--0-----00--000000----8------5--------------------|

post-verse x2
e :------------------------------------------------------|
B :------------------------------------------------------|
G :------------------------------------------------------|
D :-000---75------------75-------------------------------|
A :-000--5--787575353--5--787575353----------------------|
D :-000--------------------------------------------------|

this is a weird chord, i know. but its correct. make sure you stretch your fingers for 
this part x4
e :-------------------------------------------------------|
B :-------------------------------------------------------|
G :-------------------------------------------------------|
D :-000---3------3----------------------------------------|
A :-000---7------5----------------------------------------|
D :-000---------------------------------------------------|

play this after the drum fill. just put in random octave chords in after the open
sounds right to you.    only play this sometimes
e :-------------------------           |----------------------------|
B :-------------------------           |----------------------------|
G :-------------------------           |----------------------------|
D :--8-8-8---5-5-5---0-0-0--           |----------------------------|
A :--8-8-8---5-5-5---0-0-0--           |--333--222------------------|
D :--8-8-8---5-5-5---0-0-0--           |--333--222------------------|

use volume swells here, and hold each note. hold the very last note for 4 counts.
e :------------------------------------------------------|
B :--10-8-6-8-10---10-8-6-8-6-5--10-8-6-8-5--10-8--------|
G :------------------------------------------------------|
D :------------------------------------------------------|
A :------------------------------------------------------|
D :------------------------------------------------------|

outro. hold the last open d
e :-------------------------00---------------------------|
B :-------------------------66---------------------------|
G :---------------------------------------10-------------|
D :--000-0000-000-0000---000--000-000-00--x--0-----------|
A :--000-0000-000-0000---000--000-000-00--8--0-----------|
D :--000-0000-000-0000---000--000-000-00-----0-----------|
            

comments powered by Disqus
↑ Back to top | Underoath Tabs for A Moment Suspended In Time. Lyrics for acoustic guitar and electric guitar. Tablatures and chords are parodies/interpretations of the original songs. You may use it for private study, scholarship, research or language learning purposes only