» » »

A Moment Suspended In Time Bass tabs (ver.1)

Artists:  A B C D E F G H I J K L M N O P Q R S T U V W X Y Z # 

A Moment Suspended In Time Bass tabs (ver.1)

Underoath
Rating:
0/5 (0 votes)

Hard to play? Try these video lessons and learn fast.
                -------------------------------------------------------------------------------
		    A Moment Suspended in Time  - Underoath
-------------------------------------------------------------------------------


 Tuning:Drop D
 intro x4 "Held Captive I'm a prisoner"                 (0.22)
G|-------------------------------|---------------------------|
D|-------------------------------|---------------------------|
A|-------------------------------|---------------------------|
D|0~-----8~----5~----------------|8~-------------------------|

 Verse x4 "I'm grabbing on to what's..."  x1
G|----------------------------------------|-----------------------------------|
D|----------------------------------------|-----------------------------------|
A|---------33333333-11111111--------------|-----------------------------------|
D|00000000-------------------5555-7777----|8~------5~-------------------------|

 Chorus x2 "under my desk this can't be it"
G|---------------------------------------------------------------------------|
D|---------------------------------------------------------------------------|
A|-----------------3333333333333333-1111111111111111-------------------------|
D|0000000000000000-----------------------------------------------------------|

G|------------------------------------------------------------------------------|
D|------------------------------------------------------------------------------|
A|-----------------3333333333333333-1111111111111111----------------------------|
D|0000000000000000-----------------------------------5555555555555555-----------|

 
 Bridge "It's so funny how we see things so clear"
G|-------------------------------------------------------------|
D|-------------------------------------------------------------|
A|-------------------------------------------------------------|
D|0------0------00--0---00--0----------------------------------|
 x2 "So lay back down and take it"                   x1
G|-------------------------------------------------|---------------------------------|
D|-------------------------------------------------|---------------------------------|
A|1p0---------------------1p0----------------------|1p0------------------------------|
D|----0-3-2-0h3p0---0---------0-3-2-0h3-5~---0-----|----0--3~------------------------|
 x2 "I can't believe how it feels"
G|------------------------------------------------------|
D|------------------------------------------------------|
A|------------------------------------------------------|
D|7--78---5/12~----7--78---5~---------------------------|
 
 Chorus x2 
G|---------------------------------------------------------------------------|
D|---------------------------------------------------------------------------|
A|-----------------3333333333333333-1111111111111111-------------------------|
D|0000000000000000-----------------------------------------------------------|

G|------------------------------------------------------------------------------|
D|------------------------------------------------------------------------------|
A|-----------------3333333333333333-1111111111111111----------------------------|
D|0000000000000000-----------------------------------5555555555555555-----------|

 
 Outro x8 "This is the end"
G|---------------------------------------------|
D|---------------------------------------------|
A|---------------------------------------------|
D|7~-----8~------5~----------------------------|




===============================================================================
            
Hard to play? Try these video lessons and learn fast. | Correct




comments powered by Disqus
↑ Back to top | Tablatures and chords are parodies/interpretations of the original songs. You may use it for private study, scholarship, research or language learning purposes only