» » »

Trust Company, Downfall Bass tabs (ver.2)

Artists:  A B C D E F G H I J K L M N O P Q R S T U V W X Y Z # 

Downfall Bass tabs (ver.2)

Trust Company Tabs
 Rating:
4/5 (4 votes)
Downfall lessons Tabs too difficult? Try these video lessons and learn fast
                Just so u know, i took IbanezBassMX's 4 string tabs and translated them into a five string version so u dont have to tune down E and A everythime u play... thanx bud.

Intro (0:00) (x4)
 G|----------------------------------------------------------------
 D|----------------------------------------------------------------
 A|----------------------------------------------------------------
 E|----------------------------------------------------5-5-5-5-5-5-
 B|-2-4-4-2-4-4-2-4-2-4-4-2-4-4-2-4--2-4-4-2-4-4-2-4-2-------------

Verse (0:20) (x4)
 G|----------------------------------------------------------------
 D|----------------------------------------------------------------
 A|----------------------------------------------------------------
 E|----------------------------------------------------5-5-5-5-5-5-
 B|-2-4-4-2-4-4-2-4-2-4-4-2-4-4-2-4--2-4-4-2-4-4-2-4-2-------------

Pre-Chorus (0:40)
 G|----------------------------------------------------------------
 D|----------------------------------------------------------------
 A|----------------------------------------------------------------
 E|----------------------------------------------------5-5-5-5-5-5-
 B|-2-4-4-2-4-4-2-4-2-4-4-2-4-4-2-4--2-4-4-2-4-4-2-4-2-------------

Chorus: (x2) (0:50)
 G|---------------------------------------------------------------------------------
 D|---------------------------------------------------------------------------------
 A|---------------------------------------------------------------------------------
 E|----------------------------3-3-3-3-3-3-3~-3-3-3-3-3-3---------------------------
 B|--4--4-4--4-4~--4-4-4---4-4----------------------------7--7-7-7-7-7~-7-7-7-7-7-7-

 G|-----------------------------
 D|-----------------------------
 A|-----------------------------
 E|-----------------------------
 B|-2--2-2-2---2-2~-2-2-2-2-2-2-

Verse (x3) (1:10)

Bridge: (1:34)
 G|----------------------------------------------------------------
 D|----------------------------------------------------------------
 A|----------------------------------------------------------------
 E|----------------------------------------------------------------
 B|-4--4----------------4------------------4--4--------------2~-5~-

 G|----------------------------------------------
 D|----------------------------------------------
 A|----------------------------------------------
 E|----------------------------------------------
 B|-4--4----------------4------------------4--4--
       
Chorus (1:44) (x2)
                          
Interlude: (2:04) (x3)
 G|-------------------------
 D|-------------------------
 A|-------------------------
 E|-------5-------5------3--
 B|-2--4-----2-4-----2--4---

Then:
 G|---------------
 D|---------------
 A|---------------
 E|-------5-------
 B|-2--4-----2-4--

Chorus (x4) (2:18)

Bridge (x1)

Outro (2:57)
 G|----------------------------------------------------------------
 D|----------------------------------------------------------------
 A|----------------------------------------------------------------
 E|----------------------------------------------------------------
 B|-4--4----------------4------------------4--4--------------2~-5~-

 G|----------------------------------------------------------------
 D|----------------------------------------------------------------
 A|----------------------------------------------------------------
 E|----------------------------------------------------------------
 B|-4--4----------------4------------------4--4--------------2--5--

That sounds pretty close according to my ear... have fun, and remember, TrustCo. ROCKS!!!
            
Submit corrections

comments powered by Disqus
↑ Back to top | Trust Company Bass for Downfall. Lyrics for acoustic guitar and electric guitar. Tablatures and chords are parodies/interpretations of the original songs. You may use it for private study, scholarship, research or language learning purposes only