» » »

Trust Company, Downfall Tabs (ver.3)

Artists:  A B C D E F G H I J K L M N O P Q R S T U V W X Y Z # 

Downfall Tabs (ver.3)

Trust Company Tabs
Rating:
0/5 (0 votes)
Downfall lessons Tabs too difficult? Try these video lessons and learn fast
                
Intro(guitar 1)

Db--0-2-2-0-2-2-0-2-0-2-2-0-2-2-0-2-0-2-2-0-2-2-0-2-5-5-5-5---
Ab--0-2-2-0-2-2-0-2-0-2-2-0-2-2-0-2-0-2-2-0-2-2-0-2-3-3-3-3---
Db--0-2-2-0-2-2-0-2-0-2-2-0-2-2-0-2-0-2-2-0-2-2-0-2-3-3-3-3---

guitar 2 plays this over guitar 1 and uses some wah

guitar 2

Gb--9-----10---
Db--x-----x----listen to see how many times to hit each note
Ab--7-----8----
Db-------------

other riff

Gb-------7-7-7-7-7-7-----7-7-7-7-------7-7-7-7-7-7--------
Db--2-2--x-x-x-x-x-x--2--x-x-x-x--2-2--x-x-x-x-x-x--0--3--then the riff
Ab--2-2--5-5-5-5-5-5--2--5-5-5-5--2-2--5-5-5-5-5-5--0--3--starts over agin
Db--2-2---------------2-----------2-2---------------0--3--

Chorus (guitar 1)-listen to the song to see how many time u play each note

Gb-------5----7---------
Db--2----5----5----0----
Ab--2----3----5----0----
Db--2---------5----0----

Guitar 2

Gb-------5----7---------
Db--2----5----5----7----
Ab--2----3----5----5----
Db--2---------5----0----

Bridge 1-play this clean with no distortion

Db-------------------
Ab--------3------3---play that acouple of times
Db--0--2------0-2----

Bridge 2-heavy distortion

Db--0--2------0-2-----
Ab--0--2--3---0-2-3---play this acouple of times
Db--0--2------0-2-----then go back into the chorus

Very end

Db---0-3---
Ab---0-3---
Db---0-3---
            

comments powered by Disqus
↑ Back to top | Trust Company Tabs for Downfall. Lyrics for acoustic guitar and electric guitar. Tablatures and chords are parodies/interpretations of the original songs. You may use it for private study, scholarship, research or language learning purposes only