» » »

Downfall Bass tabs (ver.3)

Artists:  A B C D E F G H I J K L M N O P Q R S T U V W X Y Z # 

Downfall Bass tabs (ver.3)

Trust Company
Rating:
0/5 (0 votes)

Hard to play? Try these video lessons and learn fast.
                Tuning:  ( C  G  C  F)
 
Josh does a little run between the 3rd and 4th Chorus at the end.  I havent 
really messed with it yet.
 
Intro & Verse 10x
 F|---------------------------------||
 C|---------------------------------||
 G|---------------------------------||
 C|1h3333--1h3333 1h3333 1h3333444--||
 

Chorus 2x
 F|---------------------------------||
 C|---------------------------------||
 G|------444444---------------------||
 C|33333--------66666-111111--------||
 
Verse 5x
 
Then
 
 F|---------------------------------||
 C|---------------------------------||
 G|---------------------------------||
 C|33-3-33-1-4----33-3-33-----------||
 
Chorus 2x
 
Go! 3x
 
 F|---------------------------------||
 C|---------------------------------||
 G|----4-------4--------------------||
 C|1-3-----1-3----1-3---------------||
 
Chorus 4x
 
End
 
 F|---------------------------------||
 C|---------------------------------||
 G|---------------------------------||
 C|33-3-33-1-4----33-3-33-1-4-------||
            
Hard to play? Try these video lessons and learn fast. | Correct




comments powered by Disqus
↑ Back to top | Tablatures and chords are parodies/interpretations of the original songs. You may use it for private study, scholarship, research or language learning purposes only