>
 >
Downfall 1

Downfall 1 Guitar Tabs

Trust Company - Downfall 1 chords, tabs, tablatures, lyrics

Guitar lessons | Add/correct | Request | Top 50 tabs Artists:  A B C D E F G H I J K L M N O P Q R S T U V W X Y Z 0-9

Downfall 1 Guitar Tabs – Trust Company

CD, Sheet music, Poster

Do you like Downfall 1? Share with your friends now
Bass TabsBass Tabs v2Bass Tabs v3ChordsTabsTabs v2Tabs v3

i am 99% positive about this tab. the only thing i'm not absolutely sure of
is the harmonic(s) played after "can i break away?"..

the correct tuning for this song is Db-Ab-Db-Gb-Bb-Eb. dropped D tuning,
then down another half step. i've seen them play it live, this is how it's
done.

^-bend
*-harmonic

an "m" after a note means quickly mute it after you play it. the notes in
parenthesis are played as a result of a chord transition while strumming.

cymbal crash then..
guitar 1 plays this 4x
guitar 2 plays this 2x then begins playing note below
|-----------------------------------------------------------------------------|
|-----------------------------------------------------------------------------|
|-----------------------------------------------------------------------------|
|---------------------------------------------------5-5-5-5-5-5-5-------------|
|---------------------------------------------------3-3-3-3-3-3-3-------------|
|-0-2-2-0-2-2-0-2-0-2-2-0-2-2-0-2-0-2-2-0-2-2-0-2-0-3-3-3-3-3-3-3-------------|

guitar 2 plays this 2x
push down wah pedal and bend note slowly
|----|
|----|
|-9^-|
|----|
|-7^-|
|----|

fear in me so deep
it gets the best of me
in the fear i fall
here it comes face to face with me
here i stand
hold back so no one can see
i feel these wounds
step down.. step down.. step.. DOWN!

|-----------------------------------------------------------------------------|
|-----------------------------------------------------------------------------|
|-----------------------------------------------------------------------------|
|---------------------------------------------------5-5-5-5-5-5-5-------------|
|---------------------------------------------------3-3-3-3-3-3-3-------------|
|-0-2-2-0-2-2-0-2-0-2-2-0-2-2-0-2-0-2-2-0-2-2-0-2-0-3-3-3-3-3-3-3-------------|

am i breaking.. DOWN?

|-----------------------------------------------------------------------------|
|-----------------------------------------------------------------------------|
|-----------------------------------------------------------------------------|
|-----------------------------------------------------------------------------|
|-----------------------------------------------------------------------------|
|-0-2-2-0-2-2-0-2-0-2-2-0-2-2-0-2-0-2-2-0-2-2-0-2m----------------------------|

can i break away?

|------------|
|------------|
|------------|
|-5--5m--X-X-|
|-5--5m--X-X-|
|-5--5m--X-X-|


chorus (played 2x)
strum these chords
|-----------------------------------------------------------------------------|
|-----------------------------------------------------------------------------|
|--------------------5-5-5-5--------------------------------------------------|
|-2--2-2-2--(0)-(0)--5-5-5-5--(0)-(0)--7-7-7-7--(0)-(0)-----------------------|
|-2--2-2-2--(0)-(0)--3-3-3-3--(0)-(0)--5-5-5-5--(0)-(0)--5-5-5-5--------------|
|-2--2-2-2--(0)-(0)-----------(0)-(0)--5-5-5-5--(0)-(0)--0-0-0-0--------------|

push me away
make me fall
just to see another side of me
push me away
you can't see
what i see
the other side of me

|-----------------------------------------------------------------------------|
|-----------------------------------------------------------------------------|
|-----------------------------------------------------------------------------|
|---------------------------------------------------5-5-5-5-5-5-5-------------|
|---------------------------------------------------3-3-3-3-3-3-3-------------|
|-0-2-2-0-2-2-0-2-0-2-2-0-2-2-0-2-0-2-2-0-2-2-0-2-0-3-3-3-3-3-3-3-------------|

fall back on me
i'll be the strength i need
to save me now
just come face to face with me
stay in place you'll be
the first to see
me heal these wounds
step down.. step down.. step.. DOWN!

|-----------------------------------------------------------------------------|
|-----------------------------------------------------------------------------|
|-----------------------------------------------------------------------------|
|-2-2------------------2---------------2-2------------------0--0-3------------|
|-2-2--*5-*5-*5-*5-*5--2--*5-*5-*5-*5--2-2--*5-*5-*5-*5-*5--0--0-3------------|
|-2-2--*5-*5-*5-*5-*5--2--*5-*5-*5-*5--2-2--*5-*5-*5-*5-*5--0--0-3------------|

am i breaking.. DOWN?

|-----------------------------------------------------------------------------|
|-----------------------------------------------------------------------------|
|-----------------------------------------------------------------------------|
|-2-2------------------2---------------2-2------------------------------------|
|-2-2--*5-*5-*5-*5-*5--2--*5-*5-*5-*5--2-2--*5-*5-*5-*5-----------------------|
|-2-2--*5-*5-*5-*5-*5--2--*5-*5-*5-*5--2-2--*5-*5-*5-*5-----------------------|

can i break away?


chorus (played 2x)
strum these chords
|-----------------------------------------------------------------------------|
|-----------------------------------------------------------------------------|
|--------------------5-5-5-5--------------------------------------------------|
|-2--2-2-2--(0)-(0)--5-5-5-5--(0)-(0)--7-7-7-7--(0)-(0)-----------------------|
|-2--2-2-2--(0)-(0)--3-3-3-3--(0)-(0)--5-5-5-5--(0)-(0)--5-5-5-5--------------|
|-2--2-2-2--(0)-(0)-----------(0)-(0)--5-5-5-5--(0)-(0)--0-0-0-0--------------|

push me away
make me fall
just to see another side of me
push me away
you can't see
what i see
the other side of me


bridge
guitar 1 plays this 1x
clean w/chorus effect 
|-----------------------------------------------------------------------------|
|-----------------------------------------------------------------------------|
|-----------------------------------------------------------------------------|
|-----------------------------------------------------------------------------|
|------3------3------3------3------3----2-------------------------------------|
|-0--2---0--2---0--2---0--2---0--2----0---------------------------------------|

both guitars
back to distorted
|-----------------------------------------------------------------------------|
|-----------------------------------------------------------------------------|
|-----------------------------------------------------------------------------|
|-----------------------------------------------------------------------------|
|-0--2--3---0--2--3---0--2--3---0--2--3---0--2--3-----------------------------|
|-0--2------0--2------0--2------0--2------0--2--------------------------------|

|-----------------------------------------------------------------------------|
|-----------------------------------------------------------------------------|
|-----------------------------------------------------------------------------|
|-----------------------------------------------------------------------------|
|-0--2--3---0--2--3---0--2--3---0--2--3---0--2--3---0--2----------------------|
|-0--2------0--2------0--2------0--2------0--2------0--2----------------------|

can i break away?


chorus (played 2x)
strum these chords
|-----------------------------------------------------------------------------|
|-----------------------------------------------------------------------------|
|--------------------5-5-5-5--------------------------------------------------|
|-2--2-2-2--(0)-(0)--5-5-5-5--(0)-(0)--7-7-7-7--(0)-(0)-----------------------|
|-2--2-2-2--(0)-(0)--3-3-3-3--(0)-(0)--5-5-5-5--(0)-(0)--5-5-5-5--------------|
|-2--2-2-2--(0)-(0)-----------(0)-(0)--5-5-5-5--(0)-(0)--0-0-0-0--------------|

push me away
make me fall
just to see another side of me
push me away
you can't see
what i see
the other side of me

continue playing chorus 
|-----------------------------------------------------------------------------|
|-----------------------------------------------------------------------------|
|--------------------5-5-5-5--------------------------------------------------|
|-2--2-2-2--(0)-(0)--5-5-5-5--(0)-(0)--7-7-7-7--(0)-(0)-----------------------|
|-2--2-2-2--(0)-(0)--3-3-3-3--(0)-(0)--5-5-5-5--(0)-(0)--5-5-5-5--------------|
|-2--2-2-2--(0)-(0)-----------(0)-(0)--5-5-5-5--(0)-(0)--0-0-0-0--------------|

no one can see
anything on the other side of me
i walk i crawl
losing everything and waiting for a downfall

no one can see
anything on the other side of me
i walk i crawl
losing everything on the down-FALL!

|-----------------------------------------------------------------------------|
|-----------------------------------------------------------------------------|
|-----------------------------------------------------------------------------|
|-2-2------------------2---------------2-2------------------0--0-3------------|
|-2-2--*5-*5-*5-*5-*5--2--*5-*5-*5-*5--2-2--*5-*5-*5-*5-*5--0--0-3------------|
|-2-2--*5-*5-*5-*5-*5--2--*5-*5-*5-*5--2-2--*5-*5-*5-*5-*5--0--0-3------------|

FALL!

|-----------------------------------------------------------------------------|
|-----------------------------------------------------------------------------|
|-----------------------------------------------------------------------------|
|-2-2------------------2---------------2-2---------------0m--3m---------------|
|-2-2--*5-*5-*5-*5-*5--2--*5-*5-*5-*5--2-2--*5-*5-*5-*5--0m--3m---------------|
|-2-2--*5-*5-*5-*5-*5--2--*5-*5-*5-*5--2-2--*5-*5-*5-*5--0m--3m---------------|





Comments


Popular Trust Company tabs & chords
The Fear Bass Tabs
Downfall Chords
Breaking Down Tabs
Deeper Into You 1 Tabs
Hover 1 Tabs
Hover 2 Tabs
Peel Tabs
Retina Tabs
Slave Tabs
War Is Over Tabs


Song lyrics



↑ Back to top | Tablatures and chords are parodies/interpretations of the original songs. You may use it for private study, scholarship, research or language learning purposes only
© 2014 AZChords.com Contact us | Privacy policy | DMCA | Add/correct tabs | Request tabs | Top 50 tabs