» » »

The Word Alive, 2012 Tabs (ver.3)

Artists:  A B C D E F G H I J K L M N O P Q R S T U V W X Y Z # 

2012 Tabs (ver.3)

The Word Alive Tabs
 Rating:
4.4/5 (7 votes)
2012 lessons Tabs too difficult? Try these video lessons and learn fast
1
                TUNING - DROP B
Most of the tabs for this song are completely wrong, I really hope this one helps everybody out!

t = tremolo pick

Intro
C#|------------------------|
G#|------------------------|
E |---7t-------------------|
B |------------------------|
F#|------------------------|
B |------------------------|

Right After Intro (PALM MUTED)
C#|------------------------|
G#|------------------------|
E |------------------------|
B |------------------------|
F#|0-0-00-00---------------|
B |1-1-11-11---------------|

Breakdown Right Before Riff
"You get what you deserve, for f***ing, with ME."
(PALM MUTED)
C#|------------------------------------------------------|
G#|------------------------------------------------------|
E |------------------------------------------------------|
B |------------------------------------------------------|x2
F#|0-0-00-00---000---000-00-00-0-0-00-00---000--000-0-0--|
B |0-0-00-00---000---000-00-00-0-0-00-00---000--001-1-1--|

Riff (Both Guitars)
C#|-----------------------------|
G#|-----------------------------|
E |-----------------------------|
B |-----------------------------|
F#|------------------------777--|
B |-12t--0t--12t--887700333-----|

Riff Part 2 (Only One of the Guitarists)

C#|-------------------------------|
G#|-------------------------------|
E |-------------------------------|
B |-------------------------------|
F#|---------------------88887777--|
B |-12t--0t--12t--887700----------|

After Riff Part 2, repeat both riffs, in order as tabbed.

Techno Breakdown (Best Part!!!!!)
(PALM MUTED)
C#|----------------------------|
G#|----------------------------|
E |----------------------------|
B |----------------------------|
F#|-0---0000--00--000-000-000--|
B |-0---0000--00--000-000-000--|

Chorus (Not Tremolo Picked)
C#|---------------------|
G#|---------------------|
E |---------------------|
B |---------------------|
F#|-8(x8)-7(x8)-0(x16)--|
B |-8(x8)-7(x8)-0(x16)--|
            
Submit corrections

comments powered by Disqus
↑ Back to top | The Word Alive Tabs for 2012. Lyrics for acoustic guitar and electric guitar. 1 Tablatures and chords are parodies/interpretations of the original songs. You may use it for private study, scholarship, research or language learning purposes only