>
 >
2012

2012 Guitar Tabs

The Word Alive - 2012 chords, tabs, tablatures, lyrics

Guitar lessons | Add/correct | Request | Top 50 tabs Artists:  A B C D E F G H I J K L M N O P Q R S T U V W X Y Z 0-9

2012 Guitar Tabs – The Word Alive

CD, Sheet music, Poster

Do you like 2012? Share with your friends now
Bass TabsTabsTabs v2Tabs v3
----------------------------------------------------------------------------
----------------------------------------------------------------------------

Tuning: Drop B.

This is my first tab and im gonna tab out the lead guitar part for the word alive's 2012!

C#|-----------------------------|
G#|-----------------------------|
E |---------7(tremolo and bend)-|
B |-----------------------------|
F#|-----------------------------|
B |-----------------------------|

C#|-----------------------------|
G#|-----------------------------|
E |-----------------------------|
B |-----------------------------|
F#|0-0-00-00--------------------|
B |1-1-11-11--------------------|
pm . . .. ..

                      Sick Breakdownnn
C#|-----------------------------------------------------------|
G#|-----------------------------------------------------------|
E |-----------------------------------------------------------|
B |-----------------------------------------------------------|
F#|0-0-00-00---000-00-00-0-0-00---000--000-0-0----------------|
B |0-0-00-00---000-00-00-0-0-00---000--001-1-1----------------|x2
pm . . .. ..   ... .. .. . . ..   ...  ... . .


C#|-------------------------------------|(All tremlo picked)
G#|-------------------------------------| (When the palm muting is happening
E |-------------------------------------|  The other guitar is doing the
B |-------------------------------------|  same tremelo pattern)
F#|-5---5----------7--00-000-00-0000----|
B |---0----8-7-0-3----00-000-00-0000----|x2


               The best breakdown ever
C#|-----------------------------------|
G#|-----------------------------------|
E |-----------------------------------|
B |-----------------------------------|
F#|-0---0000--00--000-000-000---------|
B |-0---0000--00--000-000-000---------|


   "No one will recognize me.." (these are without a doubt the right notes just listen 
to the song a bunch to get the patterns down)
C#|------------------------------------------------------------------------|
G#|------------10------------------------11--------------------------------|
E |------7---------7-----7---------9--------9------9------------3-----3----|
B |--7-8----8---------8-------0-11----11-------11----0--3--5--7----7-------|
F#|---------------------------------------------------------------------5-8|
B |------------------------------------------------------------------------|

C#|----------------------------------------------------------------------|
G#|----------------------------------------------------------------------|
E |-10------9-------9-10------------10--------------------11-------------|
B |----7------5---------------7--------7----7-------9--------9-----9-----|
F#|------8------7---------7-8----8-------8-----0-11----11------11--------|
B |----------------------------------------------------------------------|
C#|-------13------12-----------------------------------------------------|
G#|-10-11----8-10----------13----13-13-----------------------------------|
E |------------------7---15---15-------15----14-----------3--------------|
B |-------------------------------------------------3-5-7---7------------|
F#|-----------------------------------------------------------5----------|
B |-------------------------------------------------------------0--------|

C#|-----------------------------------|(All tremlo picked)
G#|-----------------------------------|
E |-----------------------------------|
B |-----------------------------------|
F#|-5---5----------7--00-000-00-0000--|
B |---0----8-7-0-3----00-000-00-0000--|x3(first time just play the tremlo)
pm                    .. ... .. ....

               "Well I lied its time you f*cking died.."
C#|--------------------------------------------------------------------|
G#|--------------------------------------------------------------------|
E |--------------------------------------------------------------------|
B |--------------------------------------------------------------------|
F#|-0000--00000000-----0000--0000000-000-00-0000-----0000--00000000----|
B |-0000--00000000--1b-0000--0000000-000-00-1111~-1b-0000--00000000----|
pm  ....  ........     ....  ....... ... .. ....     ....  ........

                     Chorus
C#|------------------------------------------------------------------------|
G#|------------10------------------------11--------------------------------|
E |------7---------7-----7---------9--------9------9------------3-----3----|
B |--7-8----8---------8-------0-11----11-------11----0--3--5--7----7-------|
F#|---------------------------------------------------------------------5-8|
B |------------------------------------------------------------------------|

C#|------------------------------------------------------------------|
G#|------------------------------------------------------------------|
E |-10------9-------9-10------------10--------------------11---------|
B |----7------5---------------7--------7----7-------9--------9-----9-|
F#|------8------7---------7-8----8-------8-----0-11----11------11----|
B |------------------------------------------------------------------|

C#|-------13------12---------------------------------------------------|
G#|-10-11----8-10----------13----13-13---------------------------------|
E |------------------7---15---15-------15----14------------------------|
B |--------------------------------------------------------------------|
F#|--------------------------------------------------------------------|
B |--------------------------------------------------------------------|

C#|------------------------------------------------------------------------|
G#|------------10------------------------11--------------------------------|
E |------7---------7-----7---------9--------9------9------------3-----3----|
B |--7-8----8---------8-------0-11----11-------11----0--3--5--7----7-------|
F#|---------------------------------------------------------------------5-8|
B |------------------------------------------------------------------------|

C#|------------------------------------------------------------------|
G#|------------------------------------------------------------------|
E |-10------9-------9-10------------10--------------------11---------|
B |----7------5---------------7--------7----7-------9--------9-----9-|
F#|------8------7---------7-8----8-------8-----0-11----11------11----|
B |------------------------------------------------------------------|

C#|-------13------12---------------------------------------------------|
G#|-10-11----8-10----------13----13-13---------------------------------|
E |------------------7---15---15-------15----14-----------3------------|
B |-------------------------------------------------3-5-7---7----------|
F#|-----------------------------------------------------------5--------|
B |-------------------------------------------------------------0------|

C#|------0---0-------------|
G#|------5---5-------------|
E |------7---7-------------|
B |-0----8---8-------------|
F#|-0----------------------|
B |-0----------------------|x4

C#|-------------------------------------------------|
G#|-------------------------------------------------|
E |-------------------------------------------------|
B |-------------------------------------------------|
F#|-0-00-00--00-00-00-00-0-00-0000-0----------12/---|
B |-0-00-00--00-00-00-00-0-00-0000-000-00-00-012/---|
pm  . .. ..  .. .. .. .. . .. .... .

C#|---------------------------------------------------|
G#|---------------------------------------------------|
E |---------------------------------------------------|
B |---------------------------------------------------|
F#|-0~-00-00~-00-00~-00-00~-0~-00-0000-0--------------|
B |-0~-00-00~-00-00~-00-00~-0~-00-0000-000-00-00-00---|
pm  .  .. ..  .. ..  .. ..  .  .. .... .

   Chorus this time it starts a little differently
C#|----------------------------------------|
G#|----------------------------------------|
E |-----------3---3-----10----9------9--10-|
B |--0--3-5-7---7---------7-----5----------|
F#|-----------------5-8-----8-----7--------|
B |----------------------------------------|

C#|--------------------------------------------------------13------12---|
G#|------------10------------------------11-----------10-11---8--10-----|
E |------7---------7-----7---------9--------9------9------------------7-|
B |--7-8----8---------8-------0-11----11-------11-----------------------|
F#|---------------------------------------------------------------------|
B |---------------------------------------------------------------------|

C#|--------------------------------|
G#|----13-----13-13----------------|
E |-15----15--------15---14--------|
B |--------------------------------|
F#|--------------------------------|
B |--------------------------------|

C#|------------------------------------------------------------------------|
G#|------------10------------------------11--------------------------------|
E |------7---------7-----7---------9--------9------9------------3-----3----|
B |--7-8----8---------8-------0-11----11-------11----0--3--5--7----7-------|
F#|---------------------------------------------------------------------5-8|
B |------------------------------------------------------------------------|

C#|--------------------------|
G#|--------------------------|
E |------10----9------9--10--|
B |--------7-----5-----------|
F#|----------8-----7---------|
B |--------------------------|

C#|--------------------------------------------------------13------12---|
G#|------------10------------------------11-----------10-11---8--10-----|
E |------7---------7-----7---------9--------9------9------------------7-|
B |--7-8----8---------8-------0-11----11-------11-----------------------|
F#|---------------------------------------------------------------------|
B |---------------------------------------------------------------------|

C#|--------------------------------|
G#|----13-----13-13----------------|
E |-15----15--------15---14--------|
B |--------------------------------|
F#|--------------------------------|
B |--------------------------------|

C#|------------------------|
G#|------------------------|
E |------------------------|
B |------------------------|
F#|-00-000-000-0-----------|
B |-00-000-000-0-----------|


That is the song in its entirety this is the lead guitar part! enjoy comment and rate if 


************************************

| /   slide up
| \   slide down
| h   hammer-on
| p   pull-off
| ~   vibrato
| +   harmonic
| x   Mute note
| b   Bend
| pb  Pre-bend
| br  Bend release
| pbr Pre-bend release
| brb Bend release bend

************************************





Comments


Popular The Word Alive tabs & chords
2012 Bass Tabs
Entirety Bass Tabs
Like Father Like Son Bass Tabs
Battle Royale Tabs
Casanova Rodeo 2 Tabs
Consider It MutualIntro Tabs
Epiphany 1 Tabs
Like Father Like Son Tabs
The Wretched Tabs
We Know Who You Are Tabs


Song lyrics



↑ Back to top | Tablatures and chords are parodies/interpretations of the original songs. You may use it for private study, scholarship, research or language learning purposes only
© 2014 AZChords.com Contact us | Privacy policy | DMCA | Add/correct tabs | Request tabs | Top 50 tabs