» » »

The Word Alive, 2012 Tabs (ver.2)

Artists:  A B C D E F G H I J K L M N O P Q R S T U V W X Y Z # 

2012 Tabs (ver.2)

The Word Alive Tabs
Rating:
3/5 (3 votes)
2012 lessons Tabs too difficult? Try these video lessons and learn fast
                -------------------------------------------------------------------------------
                             2012 – The Word Alive
-------------------------------------------------------------------------------
INTRO
|-------------------------|
|-------------------------|
|-7tpbrb--(4x)------------|
|-------------------------|
|---------------000000----|
|---------------111111----|
                ......
|--------------------------------------------|
|--------------------------------------------|
|--------------------------------------------|
|--------------------------------------------|
|-000000-000--000-0000000000-000--000-0-0----| (2x)
|-000000-000--000-0000000000-000--001-1-1----|
  ...... ...  ... .......... ...  ... . .

VERSE
|--------------------------------------------|
|--------------------------------------------|
|--------------------------------------------|
|--------------------------------------------|
|-5tp-----------------5tp-----------8tp7tp---| (4x)
|------1tp--------------------9tp8tp---------|


BREAKDOWN
|----------------------------|
|----------------------------|
|----------------------------|
|----------------------------|
|-0--0000-00--000-000-000----|(4x)
|-0--0000-00--000-000-000----|
  .  .... ..  ... ... ...

CHORUS
|------------------------------------------------------------------------|
|------------------------------------------------------------------------|
|-7-------6-------7-------10---9---7-------6-------7---------------------|
|----------------------------------------------------------000-0000-00---|
|-5-------4-------5-------8----7---5-------4-------5-------000-0000-00---|
|------------------------------------------------------------------------|

VERSE

|---------------------------------------------------------------------------|
|---------------------------------------------------------------------------|
|---------------------------------------------------------------------------|
|---------------------------------------------------------------------------|
|-0000--00000000-----0000--00000000-000-00-0000~-00000000~----0000--00000000|
|-0000--00000000--1b-0000--00000000-000-00-1111~-00000000~-1b-0000--00000000|

CHORUS(2X)

|-----------------|
|---16~--16~------|
|---19~--19~------|
|-0~--------------|
|-0~--------------|(4x)
|-0~--------------|

|--------------------------------------------------------|
|--------------------------------------------------------|
|--------------------------------------------------------|
|--------------------------------------------------------|
|-0-00-00--00-00-00-00--0-00-0000-0----------12/---------|
|-0-00-00--00-00-00-00--0-00-0000-000-00-00-012/---------|
  . .. ..  .. .. .. ..  . .. .... . 
|--------------------------------------------------------|
|--------------------------------------------------------|
|--------------------------------------------------------|
|--------------------------------------------------------|
|-0~-00-00~-00-00~-00-00~-0~-00-0000-0-------------------|
|-0~-00-00~-00-00~-00-00~-0~-00-0000-000-00-00-00--------|
  .  .. ..  .. ..  .. ..  .  .. .... .

CHORUS(2X)

Rate/comment please

************************************

| /   slide 
| ~   vibrato
| .   Mute note
| b   Bend
| brb Bend release bend
| tp  tremolo pick
 
************************************
            

comments powered by Disqus
↑ Back to top | The Word Alive Tabs for 2012. Lyrics for acoustic guitar and electric guitar. Tablatures and chords are parodies/interpretations of the original songs. You may use it for private study, scholarship, research or language learning purposes only