» » »

2012 Bass tabs (ver.1)

Artists:  A B C D E F G H I J K L M N O P Q R S T U V W X Y Z # 

2012 Bass tabs (ver.1)

The Word Alive
Rating:
5/5 (2 votes)

Hard to play? Try these video lessons and learn fast.
                -------------------------------------------------------------------------------
-------------------------------------------------------------------------------






Tuning: Drop B.





Intro [00:13]

 E|-------------|
 B|-------------|
F#|-------------|
 B|--1-1-11-11--|



Pre-verse [00:14]

 E|-------------------------------------------------------|
 B|-------------------------------------------------------|
F#|-------------------------------------------------------|   [x2]
 B|--0-0-00-00--000--000-00-00--0-0-00-00--000--00-1-1-1--|



Verse [00:28]

 E|----------------------------------------|
 B|-----------------2----------------------|
F#|--5---5--1-0----------------------------|
 B|----0--------0-3----0-0---0-00-00-0000--|

 E|--------------------------------------|
 B|-----------------2--------------------|
F#|--5---5--1-0--------------------------|
 B|----0--------0-3----0-0---0-00-00-00--|



Pre-chorus [00:43]

 E|----------------------------|
 B|----------------------------|
F#|----------------------------|   [x4]
 B|--0--0000-00---000-000-000--|



Chorus [00:56]

 E|----------------------------------------------------------------------------|
 B|----------------------------------------------------------------------------|
F#|----------------------------------------------------------------------------|
 B|--8(x8)--7(x8)--0(x16)--8(x8)--7(x8)--0(x8)---000-0000-00---000-0000-00--0--|



Verse [01:13]

 E|----------------------------------------|
 B|-----------------2-----------------3-2--|
F#|--5---5--1-0----------5---5--1-0--------|   [x2]
 B|----0--------0-3--------0--------0------|



Pre-chorus [01:28]

 E|-----------------------------------------------|
 B|-----------------------------------------------|
F#|-----------------------------------------------|
 B|--0000--00000000--1--0000--00000000--000-0-00--|

 E|------------------------------------------------|
 B|------------------------------------------------|
F#|------------------------------------------------|
 B|--11111--00000000--1--00000--00000000--000-0-0--|



Chorus [01:40]

 E|-----------------------------------------------------------|
 B|-----------------------------------------------------------|
F#|-----------------------------------------------------------|
 B|--8(x8)--7(x8)--0(x16)--8(x8)--7(x8)--0(x8)---000-0000-00--|

 E|----------------------------------------------------------------------------|
 B|----------------------------------------------------------------------------|
F#|----------------------------------------------------------------------------|
 B|--8(x8)--7(x8)--0(x16)--8(x8)--7(x8)--0(x8)---000-0000-00---000-0000-00--0--|



Bridge [02:11]

 E|---------------|
 B|---------------|
F#|---------------|
 B|--0----0----0--|

 E|--------------------------------------------------------------|
 B|--------------------------------------------------------------|
F#|--------------------------------------------------------------|
 B|--0-00-00---00-00--00-00---0-00-00-0-0-00---00-00-0000-0-12\--|

 E|------------------------------------------------------------|
 B|------------------------------------------------------------|
F#|------------------------------------------------------------|
 B|--0-00-00---00-00--00-00---0-00-00-0-0-00---00-00-0000-0-0--|



Chorus [02:38]

 E|--------------------------------------------|
 B|--------------------------------------------|
F#|--------------------------------------------|
 B|--0(x16)--8(x8)--7(x8)--0(x8)--000-0000-00--|

 E|-------------------------------------------------------------------------|
 B|-------------------------------------------------------------------------|
F#|-------------------------------------------------------------------------|
 B|--8(x8)--7(x8)--0(x16)--8(x8)--7(x8)--0(x8)---000-0000-00---000-0000-00--|





| /  slide up
| \  slide down
| h  hammer-on
| p  pull-off
| ~  vibrato
| +  harmonic
| x  Mute note
===============================================================================
            
Hard to play? Try these video lessons and learn fast. | Correct




comments powered by Disqus
↑ Back to top | Tablatures and chords are parodies/interpretations of the original songs. You may use it for private study, scholarship, research or language learning purposes only