>
 >
Daughters

Daughters Guitar Tabs

The Story So Far - Daughters chords, tabs, tablatures, lyrics

Guitar lessons | Add/correct | Request | Top 50 tabs Artists:  A B C D E F G H I J K L M N O P Q R S T U V W X Y Z 0-9

Daughters Guitar Tabs – The Story So Far

CD, Sheet music, Poster

Do you like Daughters? Share with your friends now
Bass TabsChordsTabsTabs v2Ukulele
Track: Daughters
Guitar 1: Rhythm, Standard (EADGBe)
Guitar 2: Lead, Standard (EADGBe)


Guitar 1
Intro
E|--------------------------------|--------------------------------|
B|--------------------------------|--------------------------------|
G|-------------5-5-5-5-5-5-5-5-5-5|--------------------------------|
D|-5-5-5-5-5-5-5-5-5-5-5-5-5-5-5-5|-2-2-2-4-4-4-5-5-5-5-5-5-5-5-5-5|
A|-5-5-5-5-5-5-3-3-3-3-3-3-3-3-3-3|-2-2-2-4-4-4-5-5-5-5-5-5-5-5-5-5|
E|-3-3-3-3-3-3--------------------|-0-0-0-2-2-2-3-3-3-3-3-3-3-3-3-3|

E|--------------------------------|--------------------------------|
B|--------------------------------|--------------------------------|
G|-------------5-5-5-5-5-5-5-5-5-5|--------------------------------|
D|-5-5-5-5-5-5-5-5-5-5-5-5-5-5-5-5|-2-2-2-4-4-4-5------------------|
A|-5-5-5-5-5-5-3-3-3-3-3-3-3-3-3-3|-2-2-2-4-4-4-5------------------|
E|-3-3-3-3-3-3--------------------|-0-0-0-2-2-2-3------------------|

Verse
E|--------------------------------|--------------------------------|
B|--------------------------------|--------------------------------|
G|-------------5-5-5-5-5-5-5-5-5-5|-------------2-2-2-2-2-2-2-2-2-2|
D|-2-2-2-2-2-2-5-5-5-5-5-5-5-5-5-5|-5-5-5-5-5-5-2-2-2-2-2-2-2-2-2-2| x4
A|-2-2-2-2-2-2-3-3-3-3-3-3-3-3-3-3|-5-5-5-5-5-5-0-0-0-0-0-0-0-0-0-0|
E|-0-0-0-0-0-0--------------------|-3-3-3-3-3-3--------------------|

Pre-chorus
E|--------------------------------|--------------------------------|
B|--------------------------------|--------------------------------|
G|-------------5-5-5-5-5-5-5-5-5-5|--------------------------------|
D|-5-5-5-5-5-5-5-5-5-5-5-5-5-5-5-5|-2-2-2-4-4-4-5-5-5-5-5-5-5-5-5-5|
A|-5-5-5-5-5-5-3-3-3-3-3-3-3-3-3-3|-2-2-2-4-4-4-5-5-5-5-5-5-5-5-5-5|
E|-3-3-3-3-3-3--------------------|-0-0-0-2-2-2-3-3-3-3-3-3-3-3-3-3|

E|--------------------------------|--------------------------------|
B|--------------------------------|--------------------------------|
G|-------------5-5-5-5-5-5-5-5-5-5|--------------------------------|
D|-5-5-5-5-5-5-5-5-5-5-5-5-5-5-5-5|-2-2-2-4-4-4-5------------------|
A|-5-5-5-5-5-5-3-3-3-3-3-3-3-3-3-3|-2-2-2-4-4-4-5------------------|
E|-3-3-3-3-3-3--------------------|-0-0-0-2-2-2-3------------------|

Chorus
E|--------------------------------|--------------------------------|
B|--------------------------------|--------------------------------|
G|-------------5-5-5-5-5-5-5-5-5-5|-------------2-2-2-2-2-2-2-2-2-2|
D|-2-2-2-2-2-2-5-5-5-5-5-5-5-5-5-5|-5-5-5-5-5-5-2-2-2-2-2-2-2-2-2-2| x4
A|-2-2-2-2-2-2-3-3-3-3-3-3-3-3-3-3|-5-5-5-5-5-5-0-0-0-0-0-0-0-0-0-0|
E|-0-0-0-0-0-0--------------------|-3-3-3-3-3-3--------------------|

E|--------------------------------|--------------------------------|
B|--------------------------------|--------------------------------|
G|-------------5-5-5-5-5-5-5-5-5-5|--------------------------------|
D|-5-5-5-5-5-5-5-5-5-5-5-5-5-5-5-5|-2-2-2-4-4-4-5-5-5-5-5-5-5-5-5-5| x4
A|-5-5-5-5-5-5-3-3-3-3-3-3-3-3-3-3|-2-2-2-4-4-4-5-5-5-5-5-5-5-5-5-5|
E|-3-3-3-3-3-3--------------------|-0-0-0-2-2-2-3-3-3-3-3-3-3-3-3-3|

Outro
E|--------------------------------|--------------------------------|
B|--------------------------------|--------------------------------|
G|--------------------------------|--------------------------------|
D|-5-5-5-5-5-5-5-5-5-5-5-5-5-5-5-5|-4-4-4-4-4-4-4-4-4-4-4-4-4-4-4-4| x2
A|--------------------------------|--------------------------------|
E|--------------------------------|--------------------------------|
PM . . . . . . . . . . . . . . . .  . . . . . . . . . . . . . . . .

E|--------------------------------|--------------------------------|
B|--------------------------------|--------------------------------|
G|--------------------------------|-------------4-----------7------|
D|-5------------------------------|-2-----------4-----------7------| x2
A|-5------------------------------|-2-----------2-----------5------|
E|-3------------------------------|-0------------------------------|

E|--------------------------------|--------------------------------|
B|--------------------------------|--------------------------------|
G|--------------------------------|-------------4-----4-----7---7--|
D|-5-----5-----5-----5-----5---5--|-2-----2-----4-----4-----7---7--|
A|-5-----5-----5-----5-----5---5--|-2-----2-----2---2-2---2-5---5--|
E|-3---3-3---3-3---3-3---3-3---3--|-0---0-0---0--------------------|
       .     .     .     .              .     .     .     .

E|--------------------------------|--------------------------------|
B|--------------------------------|--------------------------------|
G|--------------------------------|-------4-----7------------------|
D|-5-----5-----5-----5-----5---5--|-2-----4-----7------------------|
A|-5-----5-----5-----5-----5---5--|-2-----2-----5------------------|
E|-3---3-3---3-3---3-3---3-3---3--|-0------------------------------|
       .     .     .     .              

E|--------------------------------|--------------------------------|
B|--------------------------------|--------------------------------|
G|--------------------------------|-------------4-4-4-4-4-4-7-7-7-7|
D|-5-5-5-5-5-5-5-5-5-5-5-5-5-5-5-5|-2-2-2-2-2-2-4-4-4-4-4-4-7-7-7-7| x4
A|-5-5-5-5-5-5-5-5-5-5-5-5-5-5-5-5|-2-2-2-2-2-2-2-2-2-2-2-2-5-5-5-5|
E|-3-3-3-3-3-3-3-3-3-3-3-3-3-3-3-3|-0-0-0-0-0-0--------------------|

E|--------------------------------|--------------------------------|
B|--------------------------------|--------------------------------|
G|--------------------------------|--------------------------------|
D|-5-5-5-5-5-5-5-5-5-5-5-5-5-5-5-5|-4-4-4-4-4-4-4-4-4-4-4-4-4-4-4-4| x4
A|--------------------------------|--------------------------------|
E|--------------------------------|--------------------------------|
PM . . . . . . . . . . . . . . . .  . . . . . . . . . . . . . . . .

E|--------------------------------|
B|--------------------------------|
G|--------------------------------|
D|-5------------------------------|
A|--------------------------------|
E|--------------------------------|


Guitar 2
Intro
E|-3------------------------------|-3------------------------------|
B|---3-0-3-0-0-0-0-0-0-0-0-0-0-0-0|---0-0-3-0-0-5/3p0-0-1p0-3p0-1p0|
G|--------------------------------|--------------------------------|
D|--------------------------------|--------------------------------|
A|--------------------------------|--------------------------------|
E|--------------------------------|--------------------------------|

E|-3------------------------------|-3------------------------------|
B|---3-0-0-0-0-0-0-0-0-0-0-0-0-0-0|---0-0-3-0-0-5/3----------------|
G|--------------------------------|--------------------------------|
D|--------------------------------|--------------------------------|
A|--------------------------------|--------------------------------|
E|--------------------------------|--------------------------------|

Verse
E|--------------------------------|--------------------------------|
B|--------------------------------|--------------------------------|
G|-------------5-5-5-5-5-5-5-5-5-5|-------------2-2-2-2-2-2-2-2-2-2|
D|-2-2-2-2-2-2-5-5-5-5-5-5-5-5-5-5|-5-5-5-5-5-5-2-2-2-2-2-2-2-2-2-2| x2
A|-2-2-2-2-2-2-3-3-3-3-3-3-3-3-3-3|-5-5-5-5-5-5-0-0-0-0-0-0-0-0-0-0|
E|-0-0-0-0-0-0--------------------|-3-3-3-3-3-3--------------------|

(Note elongated bar)
E|-----------------------------------------------------------------|
B|o8---8---8---10--10--10--12--12--12--12--12--12--12--12--12--12--|
G|-0---0---0---0---0---0---0---0---0---0---0---0---0---0---0---0---|
D|-----------------------------------------------------------------|
A|o----------------------------------------------------------------|
E|-----------------------------------------------------------------|

E|-----------------------------------------------------------------|
B|-8---8---8---10--10--10--15--15--15--15--15--15--15--15--15--15-o|
G|-0---0---0---0---0---0---0---0---0---0---0---0---0---0---0---0---|
D|-----------------------------------------------------------------| x2
A|----------------------------------------------------------------o|
E|-----------------------------------------------------------------|

Pre-chorus
E|--------------------------------|--------------------------------|
B|--------------------------------|--------------------------------|
G|-------------5-5-5-5-5-5-5-5-5-5|--------------------------------|
D|-5-5-5-5-5-5-5-5-5-5-5-5-5-5-5-5|-2-2-2-4-4-4-5-5-5-5-5-5-5-5-5-5|
A|-5-5-5-5-5-5-3-3-3-3-3-3-3-3-3-3|-2-2-2-4-4-4-5-5-5-5-5-5-5-5-5-5|
E|-3-3-3-3-3-3--------------------|-0-0-0-2-2-2-3-3-3-3-3-3-3-3-3-3|

E|--------------------------------|--------------------------------|
B|--------------------------------|--------------------------------|
G|-------------5-5-5-5-5-5-5-5-5-5|--------------------------------|
D|-5-5-5-5-5-5-5-5-5-5-5-5-5-5-5-5|-2-2-2-4-4-4-5------------------|
A|-5-5-5-5-5-5-3-3-3-3-3-3-3-3-3-3|-2-2-2-4-4-4-5------------------|
E|-3-3-3-3-3-3--------------------|-0-0-0-2-2-2-3------------------|

Chorus (note elongated bar)
E|-----------------------------------------------------------------|
B|o8-----------10----------12----------12--12--12--12--12--12--12--|
G|-0-----------0-----------0-----------0---0---0---0---0---0---0---|
D|-----------------------------------------------------------------|
A|o----------------------------------------------------------------|
E|-----------------------------------------------------------------|

E|-----------------------------------------------------------------|
B|-8-----------10----------15----------15--15--15--15--15--15--15-o|
G|-0-----------0-----------0-----------0---0---0---0---0---0---0---|
D|-----------------------------------------------------------------| x4
A|----------------------------------------------------------------o|
E|-----------------------------------------------------------------|

E|-3------------------------------|-3------------------------------|
B|---3-0-3-0-0-0-0-0-0-0-0-0-0-0-0|---0-0-3-0-0-5/3p0-0-1p0-3p0-1p0|
G|--------------------------------|--------------------------------|
D|--------------------------------|--------------------------------| x4
A|--------------------------------|--------------------------------|
E|--------------------------------|--------------------------------|

Outro
E|--------------------------------|--------------------------------|
B|-3-3-3-0-0-0-3-3-3-0-0-0-3-3-3-0|-3-3-3-0-0-0-3-3-3-0-0-0-3-3-3-0|
G|-0-0-0-0-0-0-0-0-0-0-0-0-0-0-0-0|-0-0-0-0-0-0-0-0-0-0-0-0-0-0-0-0|
D|--------------------------------|--------------------------------| x5
A|--------------------------------|--------------------------------|
E|--------------------------------|--------------------------------|

E|--------------------------------|--------------------------------|
B|-3-3-3-0-0-0-3-3-3-0-0-0-3-3-3-0|-3-----0-----3------------------|
G|-0-0-0-0-0-0-0-0-0-0-0-0-0-0-0-0|-0-----0-----0------------------|
D|--------------------------------|--------------------------------|
A|--------------------------------|--------------------------------|
E|--------------------------------|--------------------------------|

(Note elongated bar)
E|-----------------------------------------------------------------|
B|-15--15--15--12--12--12--15--15--15--12--12--12--15--15--15--12--|
G|-0---0---0---0---0---0---0---0---0---0---0---0---0---0---0---0---|
D|-----------------------------------------------------------------| x16
A|-----------------------------------------------------------------|
E|-----------------------------------------------------------------|

E|--------------------------------|
B|-15-----------------------------|
G|-0------------------------------|
D|--------------------------------|
A|--------------------------------|
E|--------------------------------|





Comments


Popular The Story So Far tabs & chords
Daughters Bass Tabs
Roam Bass Tabs
680 South Chords
Clairvoyant 1 Chords
Empty Space Chords
May Chords
Four Years Tabs
High Regard Tabs
680 South Ukulele
Clairvoyant Ukulele


Song lyrics



↑ Back to top | Tablatures and chords are parodies/interpretations of the original songs. You may use it for private study, scholarship, research or language learning purposes only
© 2014 AZChords.com Contact us | Privacy policy | DMCA | Add/correct tabs | Request tabs | Top 50 tabs