>
 >
Quicksand

Quicksand Guitar Tabs

The Story So Far - Quicksand chords, tabs, tablatures, lyrics

Guitar lessons | Add/correct | Request | Top 50 tabs Artists:  A B C D E F G H I J K L M N O P Q R S T U V W X Y Z 0-9

Quicksand Guitar Tabs – The Story So Far

CD, Sheet music, Poster

Do you like Quicksand? Share with your friends now
Tabs
----------------------------------------------------------------------------
-----------------------------------------------------------------------------



Tuning: Standard


This one has been requested by Tom Birch!

Have fun with this one, Tom!


Intro:

E|-----------------------|
B|-----------------------|
G|-----------------------|
D|-----------------------|
A|---88-8-88-8-88-8-8x---|
E|---66-6-66-6-66-6-6x---|


Verse:

“…Hold on much longer”

Rhythm:

E|----------------------------------|
B|----------------------------------|
G|----------77-7-7------------------|
D|--33-3-3--77-7-7--88-8-8-88-8-8---|
A|--33-3-3--55-5-5--88-8-8-88-8-8---|
E|--11-1-1----------66-6-6-66-6-6---| x4

Lead:

E|-----------------------------------------|
B|-----------------------------------------|
G|--10-1010-1919-19-19--10-1010-55-5-5-----|
D|--xx-x-x---x-x--x--x--xx-x-x--xx-x-x-----|
A|--88-8-8--1717-17-17--88-8-8-\33-3-3-----|
E|-----------------------------------------| x3

E|--------------------------|
B|--------------------------|
G|--10-101010-1414--1212----|
D|--xx-x-x-x---x-x---x-x----|
A|--88-8-8-8-/1212--1010----|
E|--------------------------|


“That’s…”

“it.”

E|-------------------------|
B|-------------------------|
G|-------------------------|
D|---------8----7----8p7---|
A|----8----10---8----8-8---|
E|-xx-6-xx-6-xx-6-xx-6-6---| x4


Chorus:

“This quicksand…”

Rhythm:

E|-----------------------|
B|-----------------------|
G|-----------------------|
D|--8-888888-8-888888----|
A|--8-888888-8-888888----|
E|--6-666666-6-666666----|

E|------------------------------------------|
B|------------------------------------------|
G|------------------------------------------|
D|--3-333333-2-222222--8-888888-8-888888----|
A|--3-333333-3-333333--8-888888-8-888888----|
E|--1-111111-0-000000--6-666666-6-666666----| x4

Lead:

E|-----------------------|
B|-----------------------|
G|-10-101010-5-555555----|
D|--x-xxxxxx-x-xxxxxx----|
A|--8-888888-3-333333----|
E|-----------------------|

E|-----------------------------------------|
B|-----------------------------------------|
G|-10-101010-9-10101010-10101010-5-55555---|
D|--x-xxxxxx-x-x-xxxxxx-x-xxxxxx-x-xxxxx---|
A|--8-888888-7/8-888888-8-888888-3-33333---|
E|-----------------------------------------|

E|------------------------------|
B|------------------------------|
G|-10-10101010-9-10-14-12-10----|
D|--x-xxxxxxx--x-x--x--x--x-----|
A|--8-8888888--7/8--12-10-8-----|
E|------------------------------|

“Unintended consequences...”

E|--6p5--8p5--6p5--8p5--6p5-5---|
B|-----6----6----6----8----6----|
G|------------------------------|
D|------------------------------|
A|------------------------------|
E|------------------------------| x4



Verse 2:
E|-------|
B|-------|
G|-------|
D|--7~---|
A|--8~---|
E|--6~---|


“Biting the bait…”

E|-------------------------|
B|-------------------------|
G|-------------------------|
D|---------8----7----8p7---|
A|----8----10---8----8-8---|
E|-xx-6-xx-6-xx-6-xx-6-6---| x4

“But I’d rather gamble…”

E|-----5----6----8----5-555---|
B|--xx-6-xx-6-xx-6-xx-6-666---|
G|----------------------------|
D|----------------------------|
A|----------------------------|
E|----------------------------| x4

“Waste my breath..”

E|---------|
B|---------|
G|---------|
D|--8-8~---|
A|--8-8~---|
E|--6-6~---|

E|-----------------|
B|-----------------|
G|-----------------|
D|--7---10----7----|
A|--8----8----8----|
E|--6-xx-6-xx-6----|

E|-------------|
B|-------------|
G|-------------|
D|----8----8---|
A|---10---10---|
E|-xx-6-xx-6---|


Chorus:

“This quicksand…”

Rhythm:

E|-----------------------|
B|-----------------------|
G|-----------------------|
D|--8-888888-8-888888----|
A|--8-888888-8-888888----|
E|--6-666666-6-666666----|

E|------------------------------------------|
B|------------------------------------------|
G|------------------------------------------|
D|--3-333333-2-222222--8-888888-8-888888----|
A|--3-333333-3-333333--8-888888-8-888888----|
E|--1-111111-0-000000--6-666666-6-666666----| x4

Lead:

E|-----------------------|
B|-----------------------|
G|-10-101010-5-555555----|
D|--x-xxxxxx-x-xxxxxx----|
A|--8-888888-3-333333----|
E|-----------------------|

E|-----------------------------------------|
B|-----------------------------------------|
G|-10-101010-9-10101010-10101010-5-55555---|
D|--x-xxxxxx-x-x-xxxxxx-x-xxxxxx-x-xxxxx---|
A|--8-888888-7/8-888888-8-888888-3-33333---|
E|-----------------------------------------|

E|------------------------------|
B|------------------------------|
G|-10-10101010-9-10-14-12-10----|
D|--x-xxxxxxx--x-x--x--x--x-----|
A|--8-8888888--7/8--12-10-8-----|
E|------------------------------|

“Unintended consequences...”

E|--6p5--8p5--6p5--8p5--6p5-5---|
B|-----6----6----6----8----6----|
G|------------------------------|
D|------------------------------|
A|------------------------------|
E|------------------------------| x4


Bridge:

E|--5~~------6-8~~------|
B|--6~~------6/6~~------|
G|--3~~-----------------|
D|----------------------|
A|----------------------|
E|----------------------|
“

I’m trying hard”

E|---------------------------------|
B|---------------------------------|
G|---------------------55-5-77-7---|
D|--88--8-33--3-22--2--55-5-77-7---|
A|--88--8-33--3-33--3-/33-3-55-5---|
E|--66--6\11--1-00--0--------------| x2

E|----------------------------------|
B|----------------------------------|
G|--7-9-10-141414141414--12-14-10---|
D|--x-x-x---x-x-x-x-x-x---x--x--x---|
A|--5-7/8-/121212121212--10-12--8---|
E|----------------------------------| x2


“Temper…”

E|--------------------------------|
B|--------------------------------|
G|--7-9-10-14----12-10-12-14-12---|
D|--x-x-x---x-----x--x--x--x--x---|
A|--5-7/8-/12---\10--8-10-12-10---|
E|--------------------------------| x4

End:

E|--------------------------|
B|--------------------------|
G|---7~~~----5~~~-----------|
D|---x~~~----x~~~~----------|
A|---5~~~--\\3~~~~----------|
E|--------------------------|





Comments


Popular The Story So Far tabs & chords
Loro Bass Tabs
680 South Chords
Face Value Chords
May Chords
High Regard Drum Tabs
Brevity Tabs
Face Value 1 Tabs
Roam Tabs
States And Minds Tabs
Daughters Ukulele


Song lyrics



↑ Back to top | Tablatures and chords are parodies/interpretations of the original songs. You may use it for private study, scholarship, research or language learning purposes only
© 2014 AZChords.com Contact us | Privacy policy | DMCA | Add/correct tabs | Request tabs | Top 50 tabs