>
 >
Placeholder

Placeholder Guitar Tabs

The Story So Far - Placeholder chords, tabs, tablatures, lyrics

Guitar lessons | Add/correct | Request | Top 50 tabs Artists:  A B C D E F G H I J K L M N O P Q R S T U V W X Y Z 0-9

Placeholder Guitar Tabs – The Story So Far

CD, Sheet music, Poster

Do you like Placeholder? Share with your friends now
Tabs
-----------------------------------------------------------------------------
-----------------------------------------------------------------------------



Tuning: Standard


Intro/Verse:

E|-------------------------------------|
B|----3-3----3----3----3-3----3----3---|
G|----2-2----2----2----2-2----2----2---|
D|-00-----44---55---22-----55---44-----|
A|-------------------------------------|
E|-------------------------------------|
                                          ( x3 )
E|-------------------------------------|
B|----3-3----3----3----3-3----3----3---|
G|----2-2----2----2----2-2----2----2---|
D|--------00---22----------------------|
A|-22----------------------------------|
E|------------------33-----33---33-----|


Chorus:

E|--x-------x-------x-------x------x-------|
B|--3-------3-------3-------3------3-------|
G|--2-(x16)-2-(x16)-2-(x16)-2-(x8)-2-(x8)--|
D|--0-------x-------0-------x------2-------|
A|--x-------2-------x-------2------0-------|
E|--3-------x-------3-------x------x-------| x2

“Have to do…”

E|--x~--|
B|--3~--|
G|--2~--|
D|--0~--|
A|--x~--|
E|--3~--|


Intro/Verse:

E|-------------------------------------|
B|----3-3----3----3----3-3----3----3---|
G|----2-2----2----2----2-2----2-22-2---|
D|-00-----44---55---22-----55----------|
A|-------------------------------------|
E|-------------------------------------|
                                           ( x3 )
E|-------------------------------------|
B|----3-3----3----3------3----3----3---|
G|----2-2----2----2------2----2----2---|
D|-44-----22---44---0-0----22---44-----|
A|-------------------------------------|
E|-------------------------------------|


Chorus:

E|--x-------x-------x-------x------x-------|
B|--3-------3-------3-------3------3-------|
G|--2-(x16)-2-(x16)-2-(x16)-2-(x8)-2-(x8)--|
D|--0-------x-------0-------x------2-------|
A|--x-------2-------x-------2------0-------|
E|--3-------x-------3-------x------x-------| x2


Bridge:

“Have to…”

E|------------9-9----------|
B|------10-7-----10-7-10---|
G|--7-7------7-------------|
D|-------------------------|
A|-------------------------|
E|-------------------------| x25

Chords behind it:

E|--x-------x-------x-------x--------|
B|--3-------3-------3-------3--------|
G|--2-(x16)-2-(x16)-2-(x16)-2-(x16)--|
D|--0-------0-------x-------2--------|
A|--x-------0-------2-------0--------|
E|--3-------x-------x-------x--------|


Outro:

E|------------9-9----------|
B|------10-7-----10-7-10---|
G|--7-7------7-------------|
D|-------------------------|
A|-------------------------|
E|-------------------------|

E|------------9-9-----------|
B|------10-7------10-7-10---|
G|--7-7------7-----------7~-|
D|--------------------------|
A|--------------------------|
E|--------------------------|





Comments


Popular The Story So Far tabs & chords
680 South Chords
Empty Space Chords
Face Value Chords
May Chords
High Regard Drum Tabs
Empty Space Tabs
Small Talk Tabs
Spark Fires Tabs
Swords And Pens Tabs
680 South Ukulele


Song lyrics



↑ Back to top | Tablatures and chords are parodies/interpretations of the original songs. You may use it for private study, scholarship, research or language learning purposes only
© 2014 AZChords.com Contact us | Privacy policy | DMCA | Add/correct tabs | Request tabs | Top 50 tabs