>
 >
Roam

Roam Guitar Tabs

The Story So Far - Roam chords, tabs, tablatures, lyrics

Guitar lessons | Add/correct | Request | Top 50 tabs Artists:  A B C D E F G H I J K L M N O P Q R S T U V W X Y Z 0-9

Roam Guitar Tabs – The Story So Far

CD, Sheet music, Poster

Do you like Roam? Share with your friends now
Bass TabsTabs
-----------------------------------------------------------------------------
                        Roam – The Story So Far
-----------------------------------------------------------------------------



Tuning: Standard



(Note rings out from ‘States and Minds’)


Intro Part 1:

E|--4-4-4-4-44-4-4-44-4-4-44-44--0-0-0-0-00-0-0-00-0-0-00-00---|
B|--5-5-5-5-55-5-5-55-5-5-55-55--7-7-7-7-77-7-7-77-7-7-77-77---|
G|-------------------------------------------------------------|
D|-------------------------------------------------------------|
A|-------------------------------------------------------------|
E|-------------------------------------------------------------|

Intro Part 2 / Chorus:

E|---------------------------------------------------|
B|---------------------------------------------------|
G|-13-13-13-13-13-11--13-13-13-13-1313-13-13-1313----|
D|--x--x--x--x--x-x----x--x--x--x--x-x--x--x--x-x----|
A|-11-11-11-11-11\9---11-11-11-11-1111-11-11-1111----|
E|---------------------------------------------------|

E|------------------------------------------------|
B|------------------------------------------------|
G|-13-13-13-13-13-11--13-13-13-13-1313--9-9/1111--|
D|--x--x--x--x--x-x----x--x--x--x--x-x--x-x-x-x---|
A|-11-11-11-11-11\9---11-11-11-11-1111--7-7/9-9---|
E|------------------------------------------------|

E|---------------------------------------------------|
B|---------------------------------------------------|
G|-13-13-13-13-13-11--13-13-13-13-1313-13-13-1313----|
D|--x--x--x--x--x-x----x--x--x--x--x-x--x--x--x-x----|
A|-11-11-11-11-11\9---11-11-11-11-1111-11-11-1111----|
E|---------------------------------------------------|

E|--------------------|
B|--------------------|
G|--9-xx-9-xx-9-13----|
D|--x-xx-x-xx-x--x----|
A|--7-xx-7-xx-7/11----|
E|--------------------|


Verse:

“Give up and go home…”

E|-----------------------------|
B|-----------------------------|
G|-------------444444-444444---|
D|-2-2-2-2-22--222222-444444---|
A|-2-2-2-2-22--444444-222222---|
E|-0-0-0-0-00------------------| x2

E|-0-0-0-0---0--0-0--0-0-0-0--0-0---|
B|-5-5-7-9--12-12-9--7-7-7-5-10\9---|
G|----------------------------------|
D|----------------------------------|
A|----------------------------------|
E|----------------------------------| x4


Pre-Chorus:

E|-4-4-4-4-4-4-4-4-0-0-0-0-0-0-0-0--|
B|-5-5-5-5-5-5-5-5-7-7-7-7-9-9-7-7--|
G|----------------------------------|
D|----------------------------------|
A|----------------------------------|
E|----------------------------------|

E|-4-4-4-4-4-4-4-4-0-0-0-0-0-0-0-0--|
B|-5-5-5-5-5-5-5-5-7-7-7-7-7-7-7-7--|
G|----------------------------------|
D|----------------------------------|
A|----------------------------------|
E|----------------------------------|


Chorus:

E|---------------------------------------------------|
B|---------------------------------------------------|
G|-13-13-13-13-13-11--13-13-13-13-1313-13-13-1313----|
D|--x--x--x--x--x-x----x--x--x--x--x-x--x--x--x-x----|
A|-11-11-11-11-11\9---11-11-11-11-1111-11-11-1111----|
E|---------------------------------------------------|

E|------------------------------------------------|
B|------------------------------------------------|
G|-13-13-13-13-13-11--13-13-13-13-1313--9-9/1111--|
D|--x--x--x--x--x-x----x--x--x--x--x-x--x-x-x-x---|
A|-11-11-11-11-11\9---11-11-11-11-1111--7-7/9-9---|
E|------------------------------------------------|

E|---------------------------------------------------|
B|---------------------------------------------------|
G|-13-13-13-13-13-11--13-13-13-13-1313-13-13-1313----|
D|--x--x--x--x--x-x----x--x--x--x--x-x--x--x--x-x----|
A|-11-11-11-11-11\9---11-11-11-11-1111-11-11-1111----|
E|---------------------------------------------------|

E|--------------------|
B|--------------------|
G|--9-xx-9-xx-9-13----|
D|--x-xx-x-xx-x--x----|
A|--7-xx-7-xx-7/11----|
E|--------------------|


Verse:

“Think I’ll go and roam outside your boundary…”

E|-----------------------------|
B|-----------------------------|
G|-------------444444-444444---|
D|-2-2-2-2-22--222222-444444---|
A|-2-2-2-2-22--444444-222222---|
E|-0-0-0-0-00------------------| x4

“No SOS until the bottles are empty…”

E|-----------------------------------|
B|-----------------------------------|
G|-9999999911111111-13131313131313---|
D|-xxxxxxxx-xxxxxxx--x-x-x-x-x-x-x---|
A|-77777777-9999999-11111111111111---|
E|-----------------------------------| 


Bridge:     ( x6 )

E|----------------------------|
B|----------------------------|
G|----------------------------|
D|----2/4---4/6---2/4---4/6---|
A|--0-----0-----0-----0-------|
E|----------------------------|

E|---------------------------|
B|---------------------------|
G|-----------------4~--4~----|
D|----2/4---4/6---2---2------|
A|---------------4-----------|
E|--0-----0---------4--------|


Pre-Chorus:

E|-4-4-4-4-4-4-4-4-0-0-0-0-0-0-0-0--|
B|-5-5-5-5-5-5-5-5-7-7-7-7-9-9-7-7--|
G|----------------------------------|
D|----------------------------------|
A|----------------------------------|
E|----------------------------------|

E|-4-4-4-4-4-4-4-4-0-0-0-0-0-0-0-0--|
B|-5-5-5-5-5-5-5-5-7-7-7-7-7-7-7-7--|
G|----------------------------------|
D|----------------------------------|
A|----------------------------------|
E|----------------------------------|


Chorus:    ( x2 )

E|---------------------------------------------------|
B|---------------------------------------------------|
G|-13-13-13-13-13-11--13-13-13-13-1313-13-13-1313----|
D|--x--x--x--x--x-x----x--x--x--x--x-x--x--x--x-x----|
A|-11-11-11-11-11\9---11-11-11-11-1111-11-11-1111----|
E|---------------------------------------------------|

E|------------------------------------------------|
B|------------------------------------------------|
G|-13-13-13-13-13-11--13-13-13-13-1313--9-9/1111--|
D|--x--x--x--x--x-x----x--x--x--x--x-x--x-x-x-x---|
A|-11-11-11-11-11\9---11-11-11-11-1111--7-7/9-9---|
E|------------------------------------------------|

E|---------------------------------------------------|
B|---------------------------------------------------|
G|-13-13-13-13-13-11--13-13-13-13-1313-13-13-1313----|
D|--x--x--x--x--x-x----x--x--x--x--x-x--x--x--x-x----|
A|-11-11-11-11-11\9---11-11-11-11-1111-11-11-1111----|
E|---------------------------------------------------|

E|--------------------|
B|--------------------|
G|--9-xx-9-xx-9-13----|
D|--x-xx-x-xx-x--x----|
A|--7-xx-7-xx-7/11----|
E|--------------------|





Comments


Popular The Story So Far tabs & chords
680 South Chords
Clairvoyant Chords
The Glass Chords
Daughters Tabs
Face Value Tabs
Face Value 1 Tabs
High Regard Tabs
Spark Fires Tabs
Things I Cant Change Tabs
Clairvoyant Ukulele


Song lyrics



↑ Back to top | Tablatures and chords are parodies/interpretations of the original songs. You may use it for private study, scholarship, research or language learning purposes only
© 2014 AZChords.com Contact us | Privacy policy | DMCA | Add/correct tabs | Request tabs | Top 50 tabs