» » »

Don't Be That Note Tabs (ver.1)

Artists:  A B C D E F G H I J K L M N O P Q R S T U V W X Y Z # 

Don't Be That Note Tabs (ver.1)

The Scene Aesthetic
Rating:
0/5 (0 votes)

Hard to play? Try these video lessons and learn fast.
                Well, there's only intro tabs for this, so I decided to give you the full one. The 
are just guesses really, becuase it's hard to decipher the exact chords, but they're close, 
sound good.


Intro
e|---------------------------------|
B|--------2------0-----------------|
G|----4------4------4---2----2-----|
D|------2------2------2----2---2---| x2
A|--0------------------------------|
E|---------------------------------|

e|-------------------------------------------------------------|
B|--------0------0------0--------------0------0------0---------|
G|----2------2------2------2---2---2------2------2------2---2--|
D|------4------4------4------4-------4------4------4------4----|
A|-------------------------------------------------------------|
E|--2----------------------------0-----------------------------|

And the second time end on
e|---|
B|-0-|
G|-2-|
D|-4-|
A|-x-|
E|-0-|


Verse - Just two chords, figure out the strumming
e|--0----------0--|
B|--0----------2--|
G|--2----and---2--|
D|--2----------2--|
A|--0----------0--|
E|-------------2--|


Chorus
e|--0----0----0----0---|
B|--3----0----2----2---|
G|--2----2----2----1---|
D|--2----2----2----2---|
A|--0----0----0----2---|
E|------------2----0---|


INTRO


VERSE


CHORUS

Bridge?
e|--------0----------|
B|----2p0---2---0h2--|
G|--2---------2------| OVER AND OVER
D|-------------------|
A|-------------------|
E|-------------------|

Along with these chords

e|--0----0----0---|
B|--3----2----2---|
G|--2----2----1---|
D|--0----2----2---|
A|--0----0----2---|
E|-------2----0---|

then

CHORUS

and end on

e|-0-|
B|-2-|
G|-2-|
D|-2-|
A|-0-|
E|---|

FIN!

Tell me what you think!
            
Hard to play? Try these video lessons and learn fast. | Correct




comments powered by Disqus
↑ Back to top | Tablatures and chords are parodies/interpretations of the original songs. You may use it for private study, scholarship, research or language learning purposes only