>
 >
Don't Be That Note

Don't Be That Note Chords

The Scene Aesthetic - Don't Be That Note chords, tabs, tablatures, lyrics

Guitar lessons | Add/correct | Request | Top 50 tabs Artists:  A B C D E F G H I J K L M N O P Q R S T U V W X Y Z 0-9

Don't Be That Note Chords – The Scene Aesthetic

CD, Sheet music, Poster

Do you like Don't Be That Note? Share with your friends now
ChordsTabs
"Don't Be That Note I Can't Hold"
 
There wasn't really a tab for this song, last time I checked. So, I started
messing around, and I managed to figured it out. I'm pretty sure it's 100%,
but this is my first tab. Let me know what you guys think. Comments or email
is fine. But at least put something legitimate sounding in the subject line,
so I don't think it's spam and delete it.

This is a relatively simple little accoustic song. There's a bit of synth
piano in the background in parts, but I'm sure you can live without it.

Have fun! 

-----------------------------------------------------------------------

Tuning: Standard

Chord diagrams:
   A2         A3         F#m
   Asus2/E    A/E        F#m
e|-0----------0----------2--|
B|-0----------2----------2--|
G|-2----------2----------2--|
D|-2----------2----------4--|
A|-0----------0----------4--|
E|-0----------0----------2--|

I nicknamed those 2 chords so there would be room when I put them with the
lyrics.

A2 = 2 fingers
A3 = 3 fingers 

Simple enough?

You can probably figure out the strumming for yourself.
But if not, for the most part it's like:
1      2      1  2    3
Down-- Down-- Up Down Up

And for the chorus:
1    2  Rest Rest
Down Up Down Up
(On the rests, keep your fingers on the strings but let off the chord)

B=hammer

Eric -- [Andrew]

Go!

--Intro--

e|-----------------|   |-------------|-------------|
B|----2-0----------|   |----0-0-0----|----0-0-0----|
G|---4-4-4-2-2-2-2-|   |--2--2-2-2-2-|--1--1-1-1-1-|
D|--2--------------|   |---2------2--|---2------2--|
A|-0---------------|   |-------------|-------------|
E|-----------------|x2 |-2-----------|-0-----------|

e|-----------------|   |-----------|
B|----2-0----------|   |----0-0-0--|
G|---4-4-4-2-2-2-2-|   |--2--2-2-2-|  A2
D|--2--------------|   |---2-------|
A|-0---------------|   |-----------|
E|-----------------|x2 |-2---------|

--Verse-one--
A3    A2 A3
Leave it here
                [I know you've been]
A3  A2  A3
Running dear
                [I've been thinkin']
A3   A2   A3
We'd stay here
                [Don't you worry bout a thing]

--Pre-Chorus--
F#m__
Cause I'll be here
Yeah
F#m__
I'll be here 
              (pause)
And I'll be waiting for you

--Chorus--
A2
[So sorry about all of the times]
F#m
I had to, needed to
A3
[Believe it and see it through my eyes]
F#m
But don't you worry about it
A3
[Cause I am here for you]
F#m
As long as you need me to
A2
[Cause I am here for you]
F#m                      A3
As long as you need me to

--Introlude--
(2 guitars) 

   A3                    A2
e|-----------------|   |-----------|
B|----2-0----------|   |----0-0-0--|
G|---4-4-4-2-2-2-2-|   |--2--2-2-2-|  A2
D|--2--------------|   |---2-------|
A|-0---------------|   |-----------|
E|-----------------|x2 |-2---------|



--Verse-two--
   A3   A2 A3
It came to me
                [The answer one day]
A3 A2 A3
Suddenly
                [It hit me now I'm]
A3 A2  A3
Trying hard
                [To fix all of the things]

--Pre-Chorus--
F#m__
Yeah
I screwed up 
F#m__           (pause)
While I was gone
The search is over you've moved on
 
--Chorus--
A2
[So sorry about all of the times]
F#m
I had to, needed to
A3
[Believe it and see it through my eyes]
F#m
But don't you worry about it
A3
[Cause I am here for you]
F#m
As long as you need me to
A2
[Cause I am here for you]
F#m
As long as you need me to

--Bridge--
(2 guitars)

   A3                    A3         A2
e|----0-----|----0-----|----0-----|----0-----|
B|--2---0h2-|--2---0h2-|--2---0h2-|--2---0h2-|
G|-2-2-2----|-2-2-2----|-2-2-2----|-2-2-2----|
D|----------|----------|----------|----------|
A|----------|----------|----------|----------|
E|----------|----------|----------|----------|X2


A3__
[It's always the same
Kind of hard to explain
A2__
I feel that now things have changed
for the better]
A3__
But it's all such a shame
This decision, a game
A3__                       A2(pause)
I'm very glad that you came
I'll always be here for you

--End-Chorus--
A2
[So sorry about all of the times]
F#m
I had to, needed to
A3
[Believe it and see it through my eyes]
F#m
But don't you worry about it
A3
[Cause I am here for you]
F#m
As long as you need me to
A2
[Cause I am here for you]
F#m
As long as you need me to

End on: A3





Comments


Popular The Scene Aesthetic tabs & chords
A Formal Introduction Tabs
Heavy Lies The Crown 1 Tabs
Landons Summer Diary Tabs
Paper Hearts Tabs
So Peter, You've Become A Pirate 1 Tabs
Yellow Birds & Coal Mines Tabs
Yellow Birds Coal Mines Intro Tabs
Alamo Is No Place For Dancing Ukulele
Beauty In The Breakdown Ukulele
Dont Be That Note Ukulele


Song lyrics



↑ Back to top | Tablatures and chords are parodies/interpretations of the original songs. You may use it for private study, scholarship, research or language learning purposes only
© 2014 AZChords.com Contact us | Privacy policy | DMCA | Add/correct tabs | Request tabs | Top 50 tabs