» » »

Beauty In The Breakdown Tabs (ver.1)

Artists:  A B C D E F G H I J K L M N O P Q R S T U V W X Y Z # 

Beauty In The Breakdown Tabs (ver.1)

The Scene Aesthetic
Rating:
3/5 (7 votes)

Tabs too difficult? Try these video lessons and learn fast.
                Tuning: EADGBe
Introduction:
e|-------------------3-333-33--------33-333-333--|
b|-------------------3-333-33--------33-333-333--|
g|-----0-------------0-000-00-----0--00-000-000--|
d|--0h2-2-0h2h0------2-222-22--0h2-0-22-220-000--|
a|-------------3h0-3-3-333-33--------22-222-222--|
e|----------------------------------------3-333--|
e|-------------3-333-33--------33-333-333--------|
b|-------------3-333-33--------33-333-333--------|
g|-------------0-000-00-----0--00-000-000--------|
d|--0h2h0------2-222-22--0h2-0-22-220-000--------|
a|-------3h0-3-3-333-33--------22-222-222--------|
e|----------------------------------3-333--------|
Verse:
[strumming not shown]
e|--3--3--3--|
b|--3--3--3--|
g|--0--0--0--|
d|--2--2--0--|
a|--3--2--2--|
e|--------3--| [x4]
Pre-Chorus:
[strumming not shown]
e|--3--3--3--|
b|--3--3--3--|
g|--0--0--0--|
d|--2--0--2--|
a|-----2--3--|
e|-----------| [x2]
Chorus:
[strumming not shown]
e|--3--3--|      e|--3--3--|
b|--3--3--|      b|--3--3--|
g|--0--0--|      g|--0--0--|
d|--0--2--|      d|--2--2--|
a|--2--3--|      a|--2--3--|
e|--3-----| [x2] e|--------|
Riff:
e|--3-333-33--------33-333-333-------------|
b|--3-333-33--------33-333-333-------------|
g|--0-000-00-----0--00-000-000-------------|
d|--2-222-22--0h2-0-22-220-000-------------|
a|--3-333-33--------22-222-222-------------|
e------------------------3-333-------------|
e|-------------3-333-33--------33-333-333--|
b|-------------3-333-33--------33-333-333--|
g|-------------0-000-00-----0--00-000-000--|
d|--0h2h0------2-222-22--0h2-0-22-220-000--|
a|-------3h0-3-3-333-33--------22-222-222--|
e|----------------------------------3-333--|
Verse:
[strumming not shown]
e|--3--3--3--|
b|--3--3--3--|
g|--0--0--0--|
d|--2--2--0--|
a|--3--2--2--|
e|--------3--| [x4]
Pre-Chorus:
[strumming not shown]
e|--3--3--3--|
b|--3--3--3--|
g|--0--0--0--|
d|--2--0--2--|
a|-----2--3--|
e|-----------| [x2]
Chorus:
[strumming not shown]
e|--3--3--|      e|--3--3--|
b|--3--3--|      b|--3--3--|
g|--0--0--|      g|--0--0--|
d|--0--2--|      d|--2--2--|
a|--2--3--|      a|--2--3--|
e|--3-----| [x2] e|--------|
Post-Chorus:
[strumming not shown]
e|--3--3--|     
b|--3--3--|      
g|--0--0--|     
d|--0--2--|      
a|--2--3--|      
e|--3-----| [x2]
Bridge:
[strumming not shown]
e|--3--3--|     
b|--3--3--|      
g|--0--0--|     
d|--0--2--|      
a|--2--3--|      
e|--3-----| [x4]
Pre-Chorus:
[strumming not shown]
e|--3--3--3--|
b|--3--3--3--|
g|--0--0--0--|
d|--2--0--2--|
a|-----2--3--|
e|-----------| [x3]
Chorus:
[strumming not shown]
e|--3--3--|      e|--3--3--|
b|--3--3--|      b|--3--3--|
g|--0--0--|      g|--0--0--|
d|--0--2--|      d|--2--2--|
a|--2--3--|      a|--2--3--|
e|--3-----| [x2] e|--------|
            
Tabs too difficult? Try these video lessons and learn fast.


comments powered by Disqus
↑ Back to top | Tablatures and chords are parodies/interpretations of the original songs. You may use it for private study, scholarship, research or language learning purposes only