» » »

The Scene Aesthetic, Don't Be That Note Tabs (ver.2)

Artists:  A B C D E F G H I J K L M N O P Q R S T U V W X Y Z # 

Don't Be That Note Tabs (ver.2)

The Scene Aesthetic Tabs
Rating:
0/5 (0 votes)
Don't Be That Note lessons Tabs too difficult? Try these video lessons and learn fast
                (Intro)
-------------------------------------------------------------------------------
                             Don't Be That Note I Can't Hold - The Scene Aesthetic
-------------------------------------------------------------------------------

Tuning: Standard

This is 99% accurate, so enjoy!

e|-------------------------------------------------------------------|
B|-----------2----------0--------------------------------------------|
G|-----4---------4---------4-----2------2----------------------------|
D|--------2---------2---------2------2-----2-------------------------| x2
A|---0---------------------------------------------------------------|
E|-------------------------------------------------------------------|

e|-------------------------------------------------------------------|
B|-------------0----------0----------0-------------------------------|
G|------2----------2----------2----------2-----2---------------------|
D|---------4----------4----------4----------4------------------------|
A|---0---------------------------------------------------------------|
E|-------------------------------------------------------------------|

e|-------------------------------------------------------------------|
B|----------------0---------0---------0------------------------------|
G|--------2----------2---------2---------2-----2---------------------|
D|------------4----------4--------4---------4------------------------|
A|-------------------------------------------------------------------|
E|----4--------------------------------------------------------------|

Sorry that's all I have for now! I'll add the rest of the song when I finish it!
            
Submit corrections

comments powered by Disqus
↑ Back to top | The Scene Aesthetic Tabs for Don't Be That Note. Lyrics for acoustic guitar and electric guitar. Tablatures and chords are parodies/interpretations of the original songs. You may use it for private study, scholarship, research or language learning purposes only