» » »

Store Bought Bones Tabs (ver.3)

Artists:  A B C D E F G H I J K L M N O P Q R S T U V W X Y Z # 

Store Bought Bones Tabs (ver.3)

The Raconteurs
Rating:
0/5 (0 votes)

Hard to play? Try these video lessons and learn fast.
                Store Bought Bones
The Raconteurs


This song is played with slide, there are synth parts along with the guitar but its the same...


    Increasing volume
e |------|
C#|------|
A |------|
E |--6---|
A |--8---|
E |--6---|
    Let ring

e |-------------------|
C#|-----44----44----4-|
A |-----44----44----4-|  Reapeated a lot of times
E |--66-44-68-44-66-4-|
A |--88-44-88-44-88-4-|
E |--66----66----66---|


    ---Played with Slide--
e |-----------------------|
C#|-666/999/888/666/99/8--|
A |-666/999/888/666/99/8--|
E |-666/999/888/666/99/8--|
A |-666/999/888/666/99/8--|
E |-----------------------|


e |--------|
C#|--------|
A |--------| Repeat almost the whole song
E |-4/8-4--|
A |-6/8-6--|
E |-4/6-4--|
    down and your hands and knees...

e |-------------------|                ------------------|
C#|-----44----44----4-|                ----22----22----2-|
A |-----44----44----4-|                ----22----22----2-|
E |--66-44-68-44-66-4-| Repeat a lot   -44-22-44-22-44-2-|  Repeat all over
A |--88-44-88-44-88-4-|                -66-22-66-22-66-2-|
E |--66----66----66---|                -44----44----44---|
      what you can't buy, what you can't find what you can't...

Solo (1 octave up with whammy pedal and slide)
not exactly, just find out yourself, it's really easy.

e |------------------------------------------------------------------|
C#|------------------------------------------------------------------|
A |-13-------13-13-13-13-13-13-13/16-13--13-13-13/16-13--13-13/16-13-|
E |------------------------------------------------------------------|
A |------------------------------------------------------------------|
E |------------------------------------------------------------------|


e |-----------------------------------------------------------------|
C#|-14-------14-14-14-14-14-14/17-17-17-14-14/17-14----14-----------|
A |-------------------------------------------------16----16--------|
E |-----------------------------------------------------------------|
A |-----------------------------------------------------------------|
E |-----------------------------------------------------------------|

e |------------------------------------------------------------------------|
C#|------------------------------------------------------------------------|
A |-13-13/11/13-13/11/13/11/13/15-13-13/11/13-13/11------------------------|
E |-------------------------------------------------13/11-11-11-11-11-11/9-|
A |------------------------------------------------------------------------|
E |------------------------------------------------------------------------|


   ---Played with Slide--
e |-----------------------|
C#|-666/999/888/666/99/8--|
A |-666/999/888/666/99/8--|
E |-666/999/888/666/99/8--|
A |-666/999/888/666/99/8--|
E |-----------------------|

   ---Played with Slide--
e |-----------------------|
C#|-666/888/999/111/99/8--|
A |-666/888/999/111/99/8--|
E |-666/888/999/111/99/8--|
A |-666/888/999/111/99/8--|
E |-----------------------|


e |-----|
C#|-13--|
A |-13--| Slide and vibrato
E |-13--|
A |-13--|
E |-----|
            
Hard to play? Try these video lessons and learn fast. | Correct




comments powered by Disqus
↑ Back to top | Tablatures and chords are parodies/interpretations of the original songs. You may use it for private study, scholarship, research or language learning purposes only