» » »

The Raconteurs, Top Yourself Tabs (ver.1)

Artists:  A B C D E F G H I J K L M N O P Q R S T U V W X Y Z # 

Top Yourself Tabs (ver.1)

The Raconteurs Tabs
 Rating:
4/5 (4 votes)
Top Yourself lessons Tabs too difficult? Try these video lessons and learn fast
                Top Yourself (electric guitar)


SPECIAL TUNING:

d
b
g
D
B
E

Use a bottle neck during the whole song.


Intro

d --------------------------|
b ---12-----------------\0--|
g ---12--(let ring)-----\0--|
D ---12-----------------\0--|
B --------------------------|
E --------------------------|


Verse:

d -------------------------------------|
b ----12\0-----3---3/10-------0--------|                      Repeat 4 times
g ----12\0-----3---3/10-------0--------|
D ----12\0-----3---3/10-------0--------|
B -------------------------------------|
E -------------------------------------|

And then:
d----------------------------------------|
b ----0h10\7---10\7---10\7---10\7---0----|
g ----0h10\7---10\7---10\7---10\7---0----|
D ----0h10\7---10\7---10\7---10\7---0----|
B ---------------------------------------|
E ---------------------------------------|

Repeat the verse several times.


Chorus:

d ----12--12-12-12--12-12-10-10-10--7/12--12-12-12--12-12-10-10-10--|
b ----12--12-12-12--12-12-10-10-10--7/12--12-12-12--12-12-10-10-10--|
g ----12--12-12-12--12-12-10-10-10--7/12--12-12-12--12-12-10-10-10--|
D ----12--12-12-12--12-12-10-10-10--7/12--12-12-12--12-12-10-10-10--|
B ------------------------------------------------------------------|
E ------------------------------------------------------------------|

d ----7\5-5---5-5---5-5---5\0--|
b ----7\5-5---5-5---5-5---5\0--|      Repeat one more time at the last chorus
g ----7\5-5---5-5---5-5---5\0--|
D ----7\5-5---5-5---5-5---5\0--|
B -----------------------------|
E -----------------------------|

And then the Verse, then the Chorus, etc...

Enjoy!
            
Submit corrections

comments powered by Disqus
↑ Back to top | The Raconteurs Tabs for Top Yourself. Lyrics for acoustic guitar and electric guitar. Tablatures and chords are parodies/interpretations of the original songs. You may use it for private study, scholarship, research or language learning purposes only