» » »

The Raconteurs, These Stones Will Shout Tabs (ver.1)

Artists:  A B C D E F G H I J K L M N O P Q R S T U V W X Y Z # 

These Stones Will Shout Tabs (ver.1)

The Raconteurs Tabs
 Rating:
4/5 (4 votes)
These Stones Will Shout lessons Tabs too difficult? Try these video lessons and learn fast
                

This is a tab of a brilliant song. To my opinion the tab is perfect, but if you have 
i'd be happy to know. Enjoy the song:

It begins with palm muting the E, on 16th for 2 bars

Intro/Verse
e|---------------------------0-------------------0---0-------|
B|----------5-v3---2---------0----------5-v3---2-2---2-------|
G|---1-2/4------------b1p0---1----1-2/4----------2---2-------|
D|-2-----------------------2-2--2----------------2---2-------|
A|---------------------------2-------------------0-0-0-------|
E|-0---0-----0--0---0--------0--0----0---0---0---------------|

e|--------------------------0----------------------2---2-----|
B|---------5-v3--2----------0----------------------4---4-----|
G|---1-2/4----------b1p0----0---1-2/4--2-1-2/4--1--4---4-----|
D|-2---------------------2--2--2-----------------2-4---4-----|
A|--------------------------2----------------------2-2-2-----|
E|-0---0----0--0--0---------0------0--------0----------------|

Between Verse I and II

e|---------------------0-------------------------------------|
B|---------5-3-2-------0----------5-3-2----------------------|
G|---1-2/4------v4-----1----1-2/4------v4--v4----------------|
D|-2---------------2-2-2---2--------------2------------------|
A|---------------------2-------------------------------------|
E|-0-------------------0---0---------------------------------|

Chorus
B A E
B A E

B			A			E
Speak to me and don’t speak softly
B			A			E
Talk to me and let me know
B			A			E
Grab hold of my shoulder and tell me
G			A			E
Grab hold and do not let go
G			A			E
Grab hold and do not leg go



Distortion pt I (3 times)

e|-----------------|
B|-----------------|
G|-----------------|
D|--------------2--|
A|-------0-1-0-----|
E|-0-3-0-------3---|

Distortion Part I play each section 2 and repeat that throughout the brigde
e|-----------|--------------|
B|-----------|--------------|
G|-----------|--------------|
D|-5---------|--5-2---------|
A|-3-2-5-8---|--3-0---5-2---|
E|---0-3-6---|--------3-0---|

Than you play an open B and A chord and than the Chorus kicks in, with distortion on.
            
Submit corrections

comments powered by Disqus
↑ Back to top | The Raconteurs Tabs for These Stones Will Shout. Lyrics for acoustic guitar and electric guitar. Tablatures and chords are parodies/interpretations of the original songs. You may use it for private study, scholarship, research or language learning purposes only