>
 >
Store Bought Bones

Store Bought Bones Guitar Tabs

The Raconteurs - Store Bought Bones chords, tabs, tablatures, lyrics

Guitar lessons | Add/correct | Request | Top 50 tabs Artists:  A B C D E F G H I J K L M N O P Q R S T U V W X Y Z 0-9

Store Bought Bones Guitar Tabs – The Raconteurs

CD, Sheet music, Poster

Do you like Store Bought Bones? Share with your friends now
Bass TabsTabsTabs v2Tabs v3
----------------------------------------------------------------------------
                     Store Bought Bones - Raconteurs
----------------------------------------------------------------------------

Tuning: Standard

If you want to play the song exactly how it sounds on the CD you will have to tune your 
down 1/4 step. But it does sound perfectly fine in standard tuning. Hope ths tab helps 
out. Tell me what you think.

Intro
    <
e|-------|-----------------------------------------------------------------|
B|-------|-----------------------------------------------------------------|
G|-------|---4-4-7-7--4-4-7-7--4-4-7---4-4-7-7--4-4-7-7--4-4-7-------------|
D|---9---|-----------------------------------------------------------------|
A|---9---|-----------------------------------------------------------------|
E|---7---|-----------------------------------------------------------------|

e|-------------------------------------------------------------------------|
B|-------------------------------------------------------------------------|
G|----4-4-7-7--4-4-7-7--4-4-7---4-4-7-7--4-4-7-7--4-4-7--------------------|
D|-------------------------------------------------------------------------|
A|-------------------------------------------------------------------------|
E|-------------------------------------------------------------------------|

e|-------------------------------------------------------------------------|
B|-------------------------------------------------------------------------|
G|-------9-------12------11-----9-------12--11-----------------------------|
D|-----9------12------11------9------12-----11-----------------------------|
A|---7-----10-------9-------7-----10--------9------------------------------|
E|-------------------------------------------------------------------------|


Verse
e|-------------------------------------------------------------------------|
B|---------------------------------14~------------------------------14~----|
G|---------------------------------14~------------------------------14~----|
D|--9------------------------------14~--9---------------------------14~----|
A|--9-----------------------------------9----------------------------------|
E|--7-----------------------------------7----------------------------------|
    Get up on your hands and knees      Underneath the poplar trees


e|-------------------------------------------------------------------------|
B|---------------------------------14~-------------------------------------|
G|---------------------------------14~-------------------------------------|
D|--9------------------------------14~-------------------------------------|
A|--9----------------------------------------------------------------------|
E|--7----------------------------------------------------------------------|
    Diggin thru sticks and stones


e|-------------------------------------------------------------------------|
B|---------------------------------19\17-15/17\15\12-----------------------|
G|-------------------------------------------------------------------------|
D|--9----------------------------------------------------------------------|
A|--9----------------------------------------------------------------------|
E|--7----------------------------------------------------------------------|
    Lookin for store bought bones


e|-------------------------------------------------------------------------|
B|---------------------------------14~------------------------------14~----|
G|---------------------------------14~------------------------------14~----|
D|--9------------------------------14~--9---------------------------14~----|
A|--9-----------------------------------9----------------------------------|
E|--7-----------------------------------7----------------------------------|
    Waiting on the rising sun           Clutchin at ur holstered gun


e|-------------------------------------------------------------------------|
B|---------------------------------14~------------------------------14~----|
G|---------------------------------14~------------------------------14~----|
D|--9------------------------------14~--9---------------------------14~----|
A|--9-----------------------------------9----------------------------------|
E|--7-----------------------------------7----------------------------------|
    Praying on a shooting star          I can be wherever you are

e|-------------------------------------------------------------------------|
B|-------------------------------------------------------------------------|
G|-------9-------12------11-----9-------12--11-----------------------------|
D|-----9------12------11------9------12-----11-----------------------------|
A|---7-----10-------9-------7-----10--------9------------------------------|
E|-------------------------------------------------------------------------|


e|-------------------------------------------------------------------------|
B|---------------------------------14~------------------------------14~----|
G|---------------------------------14~------------------------------14~----|
D|--9------------------------------14~--9---------------------------14~----|
A|--9-----------------------------------9----------------------------------|
E|--7-----------------------------------7----------------------------------|
    Looking through a telescope         Maybe theres a sign of hope

e|-------------------------------------------------------------------------|
B|---------------------------------14~-------------------------------------|
G|---------------------------------14~-------------------------------------|
D|--9------------------------------14~-------------------------------------|
A|--9----------------------------------------------------------------------|
E|--7----------------------------------------------------------------------|
    Leaving everything behind


e|------------------------------------------------19-----------------------|
B|---------------------------------19\17-15/17\15--------------------------|
G|-------------------------------------------------------------------------|
D|--9----------------------------------------------------------------------|
A|--9----------------------------------------------------------------------|
E|--7----------------------------------------------------------------------|
    Stirring a store bought mind


e|-------------------------------------------------------------------------|
B|---------------------------------14~------------------------------14~----|
G|---------------------------------14~------------------------------14~----|
D|--9------------------------------14~--9---------------------------14~----|
A|--9-----------------------------------9----------------------------------|
E|--7-----------------------------------7----------------------------------|
    Sittin at the edge of the seat      Wishing you were here by me


e|-------------------------------------------------------------------------|
B|---------------------------------14~------------------------------14~----|
G|---------------------------------14~------------------------------14~----|
D|--9------------------------------14~--9---------------------------14~----|
A|--9-----------------------------------9----------------------------------|
E|--7-----------------------------------7----------------------------------|
    Siftin thru the mud and bricks      Lookin for a store bought fix


e|-------------------------------------------------------------------------|
B|-------------------------------------------------------------------------|
G|-------9-------12------11-----9-------12--11-----------------------------|
D|-----9------12------11------9------12-----11-----------------------------|
A|---7-----10-------9-------7-----10--------9------------------------------|
E|-------------------------------------------------------------------------|

(This where the whole "You can't buy what you can't find" thing starts)
e|-------------------------------------------------------------------------|
B|-------------------------------------------------------------------------|
G|--4-4-7-7--4-4-7-7--4-4-7---4-4-7-7--4-4-7-7--4-4-7--2-2-5-5--2-2-5-5----|
D|-------------------------------------------------------------------------|
A|-------------------------------------------------------------------------|
E|-------------------------------------------------------------------------|

e|-------------------------------------------------------------------------|
B|-------------------------------------------------------------------------|
G|--2-2-5--4-4-7-7--4-4-7-7--4-7-7--4-4-7-7--4-4-7-7--4-4-7--2-2-5-5-------|
D|-------------------------------------------------------------------------|
A|-------------------------------------------------------------------------|
E|-------------------------------------------------------------------------|

e|-------------------------------------------------------------------------|
B|-------------------------------------------------------------------------|
G|--2-2-5-5--2-5-5--4-4-7-7--4-4-7-7--4-7-7--4-4-7-7--4-4-7-7--4-7-7-------|
D|-------------------------------------------------------------------------|
A|-------------------------------------------------------------------------|
E|-------------------------------------------------------------------------|

e|-------------------------------------------------------------------------|
B|-------------------------------------------------------------------------|
G|-------9-------12------11-----9-------12--11-----------------------------|
D|-----9------12------11------9------12-----11-----------------------------|
A|---7-----10-------9-------7-----10--------9------------------------------|
E|-------------------------------------------------------------------------|


Solo

e|--17b19~~~~~~~~~~~19\--19~~~~~~~~~~~~19\--19~~~~~~~~~19\---19~-19\--19\--|
B|-------------------------------------------------------------------------|
G|-------------------------------------------------------------------------|
D|-------------------------------------------------------------------------|
A|-------------------------------------------------------------------------|
E|-------------------------------------------------------------------------|

e|--21b24~~~~~~~~~~24\--24~~~~~~~~~~~~24\--24~~~~~~~~~24\---24~-24\--24\---|
B|-------------------------------------------------------------------------|
G|-------------------------------------------------------------------------|
D|-------------------------------------------------------------------------|
A|-------------------------------------------------------------------------|
E|-------------------------------------------------------------------------|

e|--19-17-19-17-19-17-19-17-19-19b22--19-17-19-17-19-17-19-17-19-10b11-----|
B|-------------------------------------------------------------------------|
G|-------------------------------------------------------------------------|
D|-------------------------------------------------------------------------|
A|-------------------------------------------------------------------------|
E|-------------------------------------------------------------------------|

e|-------------------------------------------------------------------------|
B|--12-14b*-12-14b*-12-14b*-12-14b*-12-14b*-12\----------------------------|
G|-------------------------------------------------------------------------|
D|-------------------------------------------------------------------------|
A|-------------------------------------------------------------------------|
E|-------------------------------------------------------------------------|

(Repeat 4x)
e|-------------------------------------------------------------------------|
B|-------------------------------------------------------------------------|
G|-------9-------12------11-----9-------12--11-----------------------------|
D|-----9------12------11------9------12-----11-----------------------------|
A|---7-----10-------9-------7-----10--------9------------------------------|
E|-------------------------------------------------------------------------|

(Ending Riff)
e|-------------------------------------------------------------------------|
B|-12~~~~~~-17b19-17-15-----15---------------------------------------------|
G|----------------------16-----16~~----------------------------------------|
D|-------------------------------------------------------------------------|
A|-------------------------------------------------------------------------|
E|-------------------------------------------------------------------------|


| b* bend 1/4 (bend slightly)
| <  increase volume
| /  slide up
| \  slide down
| h  hammer-on
| p  pull-off
| ~  vibrato
| +  harmonic
| x  Mute note
===========================================================================





Comments


Popular The Raconteurs tabs & chords
Level 2 Bass Tabs
Steady As She Goes 3 Bass Tabs
The Switch And The Spur Bass Tabs
Bang Bang Tabs
Level Tabs
Salute Your Solution Tabs
Store Bought Bones 1 Tabs
Store Bought Bones 3 Tabs
These Stones Will Shout Tabs
Top Yourself 2 Tabs


Song lyrics



↑ Back to top | Tablatures and chords are parodies/interpretations of the original songs. You may use it for private study, scholarship, research or language learning purposes only
© 2014 AZChords.com Contact us | Privacy policy | DMCA | Add/correct tabs | Request tabs | Top 50 tabs