» » »

Floating Tabs (ver.2)

Artists:  A B C D E F G H I J K L M N O P Q R S T U V W X Y Z # 

Floating Tabs (ver.2)

The Raconteurs
Rating:
4/5 (3 votes)

Hard to play? Try these video lessons and learn fast.
                ----------------------------------------------
| Floating                                   |
| Live at the Corn Exchange in Edinburgh     |
| August 23, 2006                            |
| Performed by Raconteurs                    |
| Written by Jape                            |
----------------------------------------------

RIFF (main, jack played, brendan sing):

e|--8-8-8-6-3--3-6-8-6-8----------------------|
B|--------------------------------------------|
G|--------------------------------------------|
D|--------------------------------------------|
A|--------------------------------------------|
E|--------------------------------------------|

e|--8-8-8--8-8-8-6-3-6-3----------------------|
B|-----------------------6-3-(3-6-3)----------|
G|--------------------------------------------|
D|--------------------------------------------|
A|--------------------------------------------|
E|--------------------------------------------|

VERSE 1:

RIFF

Took our first pill and the music was sh*t

RIFF

I said 'f**k dancing all night' but then that's just what you do

   It felt like  flo-oh--------------------------------------|oh-oh-oh-oh-oh-ating  (2x)
e|---------------8---5---3--3--5--3--------------------------|
B|-3--6----3-------------------------6--3--------------------|
G|-----------------------------------------------------------|
D|-----------------------------------------------------------|
A|-----------------------------------------------------------|
E|-----------------------------------------------------------|

felt like floating


VERSE 2:

The party was warm and I lay by your side
I said 'I'm glad I have found you, I'm glad we're alive'
It feels like floating, it feels like floating, it feels like floating

e|--5-8-5---5---(Jack played solo 4x)--|
B|--------8----------------------------|
G|-------------------------------------|
D|-------------------------------------|
A|-------------------------------------|
E|-------------------------------------|

VERSE 3:

We lay by a river and looked at the stars
I said 'how tiny we are, girl, how tiny we are'
It feels like floating, it feels like floating, it feels like floating


VERSE 4:

Lifetime is short, girl, and death is so long
I don't believe in no heaven, I just know that I'm gone
It feels like floating, it feels like floating, it feels like floating


VERSE 5:

Been looking so long (?) and I don't understand
Because it makes much more sense with my hands in your hands
It feels like floating, it feels like floating, it feels like floating
It feels like floating, it feels like floating, it feels like floating
It feels like floating, it feels like floating, it feels like floating
            
Hard to play? Try these video lessons and learn fast. | Correct




comments powered by Disqus
↑ Back to top | Tablatures and chords are parodies/interpretations of the original songs. You may use it for private study, scholarship, research or language learning purposes only