» » »

Floating Tabs (ver.1)

Artists:  A B C D E F G H I J K L M N O P Q R S T U V W X Y Z # 

Floating Tabs (ver.1)

The Raconteurs
Rating:
0/5 (0 votes)

Hard to play? Try these video lessons and learn fast.
                The Raconteurs
Jape

These are merely some basic things, free interpreted from various life recordings. Suggestions are welcome!

e|-10-10-10-8-------8-10-8-10---------|
B|------------10--10------------------|
G|------------------------------------|
D|------------------------------------|
A|------------------------------------|
E|------------------------------------|

e|-10-10-10-10-10-10-8----------------|
B|---------------------10--10-10-8-6--|
G|----------------------------------7-|
D|------------------------------------|
A|------------------------------------|
E|------------------------------------|

e|-----8------------------------------||
B|--6----10--8--8-10-8-6--------------||
G|-7-7-------------------7------------||
D|------------------------------------||
A|------------------------------------||
E|------------------------------------||

e|------------------------------------|
B|--6--8-10---------------------------|
G|-7-7--------------------------------|
D|------------------------------------|
A|------------------------------------|
E|------------------------------------|
            
Hard to play? Try these video lessons and learn fast. | Correct




comments powered by Disqus
↑ Back to top | Tablatures and chords are parodies/interpretations of the original songs. You may use it for private study, scholarship, research or language learning purposes only